Für Elise Tab par Beethoven, Ludwig Van

3 Accords utilisés dans la chanson: Am, E, G

Ajouter cette tab à votre SongBook
Tablature / ChordsFont size: A- A A+

Vous ne savez pas comment lire une tablature ou un accord ?
Ne manquez pas nos cours:

Comment lire une tablature pour ukulélé
Comment lire un accord

# The well-known classical piece F Für Elise, 
# composed by Ludvig van Beethoven,
# and tabbed by HaraldN.
# I know some chords are a bit wrong,
# but this tab is still quite accurate,
# and it would be great if you could rate it.

Am Am E E Am Am
# v v v
A||--7-6-|--7-6-7-2-5-3-|--0-------0-|--2-------2-|--3-----7-6-|--7-6-7-2-5-3-|
E||------|--------------|--0-----0---|--0---0-4---|--0---0-----|--------------|
C||------|--------------|--0---0-----|--4---------|--0---------|--------------|
G||------|--------------|--2---------|--1---------|--2---------|--------------|


Am Am E E Am Am E E G G Am Am
# v v v v v v
--0-------0-|--2-----3-2-|--0---2-3-5-|--7-----8-7-|--5-----7-5-|--3-----5-3-|
--0-----0---|--0---0-----|--0---------|--4---3-----|--3---1-----|--0---0-----|
--0---0-----|--4---------|--0---------|--4---------|--2---------|--0---------|
--2---------|--1---------|--2---------|--4---------|--4---------|--2---------|


(E E)* * Am Am
# v v
---2------------|--7-7-7-15---|----6-7-6-7-6-|--7-6-7-2-5-3-|--0-------0-|
---0---0-0-0-12-|-------------|--------------|--------------|--0-----0---|
--(4)-----------|-------------|--------------|--------------|--0---0-----|
----------------|-------------|--------------|--------------|--2---------|


E E Am Am Am Am E E Am Am
# v v v v v

--2-------2-|--3-----7-6-|--7-6-7-2-5-3-|--0-------0-|--2-----3-2-|--0------|
--0---0-4---|--0---0-----|--------------|--0-----0---|--0---0-----|--0------|
--4---------|--0---------|--------------|--0---0-----|--4---------|--0------|
--1---------|--2---------|--------------|--2---------|--1---------|--2------|

# *This part is kind of wrong,
# but it's impossible to play more than
# two E E octaves on ukulele
# (Well, atleast on my ukulele ;),
# so I had to improvise and make the best of it.


# Tablature Legend
# ----------------
# ^ - brush up
# v - brush down

 

Commentaires (9)
Vous devez être connecté pour participer à la discussion
ou Inscription

 

jupavero avatar
Thanks for creating this one!
15 Nov 2020
Quorge avatar
This is amazing! Good job! Instead of hitting the 2 and 3 on the A string I find it a lot easier to do 7 and 8 on the E. My uke is has only 12 frets too. :(
16 Feb 2013
ssanchez avatar
flag for US(ISO2) (Port Orchard)
very well done!i can play some ukulele but this is a challenging piece! good job
07 Aug 2012
woodshed avatar
flag for US(ISO2) (DC)
Outstanding tab, indeed. But I'm pretty new at this whole thing, and I'm not sure I understand two things on the third measure; first, the (4) I'm not sure what to do there, playing it normally sounds fine, but am I missing something? Also in the same measure, when you say to hit the seventh fret thrice, then hit "15"? My board hits up to 13, so is it a typo, or is this meant for a different kind of Ukulele?
10 Mar 2011
UkeChicken avatar
awesum tab. love it!
14 Mar 2010
reinesoleil avatar
flag for US(ISO2) (Spokane)
AMAZING!!!
07 Mar 2010
panda2 avatar
flag for SY(ISO2) (Damascus)
fucking great ! Amazing ! Keep up that fantastic job !
02 Mar 2010
JaxX avatar
flag for DE(ISO2) (Berlin)
awsome job dude ! many thanks
01 Mar 2010
CosmicCookie avatar
flag for GB(ISO2) (Manchester)
Genius, sounds awesome xDD Good job.
01 Mar 2010
A propos de cette chanson

Pas d'information sur cette chanson.