Twilight Of The Thunder God Tab par Amon Amarth

Tablature Ukulélé sans accords.

Ajouter cette tab à votre SongBook
Tablature / ChordsFont size: A- A A+

Vous ne savez pas comment lire une tablature ou un accord ?
Ne manquez pas nos cours:

Comment lire une tablature pour ukulélé
Comment lire un accord

(Tune the g and C C strings down 1/2 step.
The tuning should be f# B B E E A A.
It's way more metal this way)

(Intro)

--7-----------4-------------------------------------------------
--------------------------4-----------5-----------4-------2-----
------2---2-------2---2-------2---2-------2---2-------2-------2-
----------------------------------------------------------------

--7-----------4-----------------------4-----------7-------4-----
--------------------------4-------------------------------------
------2---2-------2---2-------2---2-------2---2-------2-------2-
----------------------------------------------------------------

--6-----------2-----------------------2-----------4-------2-----
--------------------------2-------------------------------------
------0---0-------0---0-------0---0-------0---0-------0-------0-
----------------------------------------------------------------

--6-----------2-----------------------2-----------6-------2-----
--------------------------2-------------------------------------
------0---0-------0---0-------0---0-------0---0-------0-------0-
----------------------------------------------------------------

(Chorus)

--4-----2---4/6---7-----7---7-----9--11\9---7---

--4-----2---4/6---7-----7---7-----9--11\9---7---

--2-----0---2/4---5-----5---5-----7---9\7---5---

--2-----0---2/4---5-----5---5-----7---9\7---5---


--9-9-9---7---9\7---6-----4---4-----2---4/6---4-

--9-9-9---7---9\7---6-----4---4-----2---4/6---4-

--7-7-7---5---7\5---4-----2---2-----0---2/4---2-

--7-7-7---5---7\5---4-----2---2-----0---2/4---2-

(Repeat chorus once)

--5---2---9-10--9--7---5---2---9-10--9--7--2----

--5---2---9-10--9--7---5---2---9-10--9--7--2----

--3---0---7--8--7--5---3---0---7--8--7--5--0----

--3---0---7--8--7--5---3---0---7--8--7--5--0----

# (Repeat everything from the intro through the bit at the end of the chorus)

(Breakdown)

--5p2-------------5p3-------------0h2-------------3p2-----0h2-----

------------------------------------------------------------------

------0-0-0-0-0-0-----0-0-0-0-0-0-----0-0-0-0-0-0-----0-0-----0-0-

------------------------------------------------------------------

(Repeat)

--5p2-2-2-2---2-2-5p3-3-3-3---3-3-0h2-2-2-2---2-2-3p2-2-2-0h2-0-0-

--5p2-2-2-2---2-2-5p3-3-3-3---3-3-0h2-2-2-2---2-2-3p2-2-2-0h2-0-0-

--0---0-0-0---0-0-----------------0---0-0-0---0-0-0---0-0-0---0-0-

--0---0-0-0---0-0-----------------0---0-0-0---0-0-0---0-0-0---0-0-

# (Repeat a bunch of times)

# (Lazy version of intro)

--7-----------4-------------------------------------------------

--------------------------4-----------5-----------4-------2-----

--------2-----------2-----------2-----------2---------2-------2-

----------------------------------------------------------------


--7-----------4-----------------------4-----------7-------4-----

--------------------------4-------------------------------------

--------2-----------2-----------2-----------2---------2-------2-

----------------------------------------------------------------


--6-----------2-----------------------2-----------4-------2-----

--------------------------2-------------------------------------

--------0-----------0-----------0-----------0---------0-------0-

----------------------------------------------------------------


--6-----------2-----------------------2-----------6-------2-----

--------------------------2-------------------------------------

--------0-----------0-----------0-----------0---------0-------0-

----------------------------------------------------------------

# (Repeat the intro, chorus, and the bit at the end of the chorus)

 

Commentaires (0)
Aucun commentaire :(
Besoin d'aide, envie de partager une astuce, ou simplement de parler de cette chanson? Commencez la discussion!

Vous devez être connecté pour participer à la discussion
ou Inscription

 

A propos de cette chanson

Pas d'information sur cette chanson.