Rock And Roll Train (Solo) Tab par Ac Dc

Tablature Ukulélé sans accords.

ImprimerAjouter cette tab à votre SongBook
Tablature / ChordsFont size: A- A A+

Vous ne savez pas comment lire une tablature ou un accord ?
Ne manquez pas nos cours:

Comment lire une tablature pour ukulélé
Comment lire un accord

SSS       ~~~~          ~~~~~~       ~~~   ~~~   ~~~   
A|-x-----------------------------------------------------|
E|-------------------5---3-5-----------------------------|
C|-x-------2-4------------------------2-4---2-4---2-4----|
G|-x--------^------5---5-----------5---^-----^-----^-----|
P ~~~ ~~~~ H ~~~~
A|------------------------------------------|
E|-----5------3-----------3---3-5--3--------|
C|-2------------------3-4---4---------------|
G|---5--------5^---------------------5------|
~~ ~~~ ~~~~ ~~~ ~~~ ~~~ ~~~
A|---------------------|-9-------9-------9-------9-----|
E|--^------^---5-------|---------------------------|
C|-------------------x-|---------------------------|
G|-5------5----------x-|-9------9------9------9----|
~~~~~~~~~~~~ ~~~~SSsS
A|----------------------------|---------|
E|---^--r---5--5--------------|---------|
C|----------------------------|---------|
G|-7--8---5-------------------|-(Drum-)-|
~~~~
A|---------|
E|---5-----|
C|---------|
G|-5-------|

 

Commentaires (1)
Vous devez être connecté pour participer à la discussion
ou Inscription

 

UkeNotDead avatar
flag for FR(ISO2) (Paris)
Good Luck

J'arrive pas a jouer le solo que je poste...
30 Nov 2013
A propos de cette chanson

Pas d'information sur cette chanson.