Bloom Nobly, Cherry Blossoms Of Sumizome ~ Border Of Life Tab por ZUN

tablatura Ukulele sin acordes.

¡Califica la canción!
ImprimirAñadir esta tab a su SongBook

Tablature / Chords (Canción entera)

Font size: A- A A+

Artista: 
Album:  desconocido
Key: desconocidotablatura (sin acordes )
Used guitar to ukulele tabs converter of ukulele-tabs.com. I've played the first few parts. Plays good. c: I don't know. I'm still not a good ukulele player to tell if it's good or not nor is it wise to use a converter.


A||---------------------|---------------------|------------------------|
E||--2------------------|--2------------------|------------------5-----|
C||---------------------|---------------------|------------------------|
G||---------4------6----|---------4------6----|--7-----4----6----------|

-------------------|---------------------|--7------------------|
-------------------|--2------5-----------|---------5-----------|
-------------------|---------------------|---------------------|
--4----------------|----------------4----|----------------4----|

------------------------|-------------------|---------9------9----|
------------------5-----|-------------------|--2------------------|
------------------------|-------------------|--2------------------|
--7-----4----6----------|--4----------------|---------4------6----|

---------9------9----|--7------9----9----------|--9----------------|
--2------------------|------------------5-----|-------------------|
--2------------------|-------------------4----|--2----------------|
---------4------6----|--7-----4----6----------|--4----------------|

---------9------9----|--7------7------9----|--7------9----9----------|
--2------5-----------|---------5-----------|------------------5-----|
--2------------------|---------------------|-------------------4----|
----------------4----|--6-------------4----|--7-----4----6----------|

-----5--------4-----------|-----5--------4-----------|
--2--------0-----------0--|--2--------0-----------3--|
--------------------------|--------------------------|
--------4--------3--------|--------4--------3--------|

-----5--------4-----------|-----5--------------5--7--|---------9------9----|
--2--------0-----------0--|--2--------3--0-----------|--2------------------|
--------------------------|--------------------------|--2------------------|
--------4--------3--------|--------4-----------------|---------4------6----|

---------9------9----|--7------9----9----------|--9----------------|
--2------------------|------------------5-----|-------------------|
--2------------------|-------------------4----|--2----------------|
---------4------6----|--7-----4----6----------|--4----------------|

---------9------9----|--7------7------9----|--7------9----9----------|
--2------5-----------|---------5-----------|------------------5-----|
--2------------------|---------------------|-------------------4----|
----------------4----|--6-------------4----|--7-----4----6----------|

--9----------------|---------9------9----|---------9------9----|
-------------------|--2------------------|--2------------------|
--2----------------|--2------------------|--2------------------|
--4----------------|---------4------6----|---------4------6----|
~ ~
--7--------------------------|---------------------|----------------------------|
--------------------------|--------------------|--------------------------|
--------------------------|--------------------|--------------------------|
--7-----9-----11-----14-----|--11-----------------|--11--------4-------11------|
~ ~
----------------------------|-------------------------|---------------------|
--------------------------|------------------------|--------------------|
--------------------------|------------------------|--------------------|
--11--------4-------11------|--4----6----7-----14-----|--16-----------------|

-------------------------|-----------------------|-------------------------|
-------5-----------5-----|--2--------------------|-------5-----------5-----|
-------------------------|-----------------------|-------------------------|
--4-------4-----4-----4--|-------7-----6----4----|--4-------4-----4-----4--|

-------------------|-----------------------------|-----------------------------|
--2----------------|-----------------------------|---------g------------------|
-------------------|-----------------------------|----------------------------|
-------------------|--7-----6--7------7---6--7---|--4----9--11-----9-----7-----|

-----------------------------|--------------------|-------------------|
-----------------------------|--6-----------------|-------------------|
-----------------------------|--------------------|-------------------|
--7-----6--7------7---6--7---|--------------------|-------------------|
--5----5----5----5----|--5----5----5----5----|--2----2----4----4----|
--7----7----7----7----|--5----5----5----5----|--3----3----5----5----|
--6----6----6----6----|--6----6----6----6----|--2----2----4----4----|
--4----4----4----4----|--2----2----2----2----|--0----0----2----2----|

--5----5----5----5----|--5----5----5----5----|--5----5----5----5----|
--7----7----7----7----|--7----7----7----7----|--5----5----5----5----|
--6----6----6----6----|--6----6----6----6----|--6----6----6----6----|
--4----4----4----4----|--4----4----4----4----|--2----2----2----2----|

--2----2----4----4----|--5----5----5----5----|--5----5----5----5----|
--3----3----5----5----|--7----7----7----7----|--7----7----7----7----|
--2----2----4----4----|--6----6----6----6----|--6----6----6----6----|
--0----0----2----2----|--4----4----4----4----|--4----4----4----4----|

--5----5----5----5----|--2----2----4----4----|--5----5----5----5----|
--5----5----5----5----|--3----3----5----5----|--7----7----7----7----|
--6----6----6----6----|--2----2----4----4----|--6----6----6----6----|
--2----2----2----2----|--0----0----2----2----|--4----4----4----4----|

--5----5----5----5----|--5----5----5----5----|--2----2----4----4----|
--7----7----7----7----|--5----5----5----5----|--3----3----5----5----|
--6----6----6----6----|--6----6----6----6----|--2----2----4----4----|
--4----4----4----4----|--2----2----2----2----|--0----0----2----2----|

--5----5----5----5----|--6----6----6----6----|--6----6----6----6----|
--7----7----7----7----|--8----8----8----8----|--6----6----6----6----|
--6----6----6----6----|--7----7----7----7----|--7----7----7----7----|
--4----4----4----4----|--5----5----5----5----|--3----3----3----3----|

--3----3----5----5----|--6----6----6----6----|--6----6----6----6----|
--4----4----6----6----|--8----8----8----8----|--8----8----8----8----|
--3----3----5----5----|--7----7----7----7----|--7----7----7----7----|
--1----1----3----3----|--5----5----5----5----|--5----5----5----5----|

--6----6----6----6----|--3----3----5----5----|--6----6----6----6----|
--6----6----6----6----|--4----4----6----6----|--8----8----8----8----|
--7----7----7----7----|--3----3----5----5----|--7----7----7----7----|
--3----3----3----3----|--1----1----3----3----|--5----5----5----5----|

--6----6----6----6----|--6----6----6----6----|--3----3----5----5----|
--8----8----8----8----|--6----6----6----6----|--4----4----6----6----|
--7----7----7----7----|--7----7----7----7----|--3----3----5----5----|
--5----5----5----5----|--3----3----3----3----|--1----1----3----3----|

--6----6----6----6----|--6----6----6----6----|--6----6----6----6----|
--8----8----8----8----|--8----8----8----8----|--6----6----6----6----|
--7----7----7----7----|--7----7----7----7----|--7----7----7----7----|
--5----5----5----5----|--5----5----5----5----|--3----3----3----3----|

--3----3----5----5----|--6----6----6----6----|--6----------------|
--4----4----6----6----|--8----8----8----8----|--8----------------|
--3----3----5----5----|--7----7----7----7----|--7----------------|
--1----1----3----3----|--5----5----5----5----|--5----------------|

-----------6-----5--6-----|-----------6-----5--6-----|
-----1--3-----1-----------|-----1--3-----1-----------|
--------------------------|--------------------------|
-----------------------5--|-----------------------5--|

--6--------6--5--------5--|-----------6-----6--------|
--------4-----------1-----|-----3--------3--------3--|
--------------------------|--------------------------|
-----5-----------3--------|--5-----5-----------5-----|

--------------------------|-----------5--------5-----|
-----1--------1--------1--|-----3--------3--------1--|
--------------------------|--------------------------|
--------0--3-----0--3-----|--------4--------4--------|
H P
-----6-----------5--------|--6--3-----5--6--5--3--------|
--3--------3--1--------1--|-----------------------------|
--------------------------|--------------------------0--|
--------5-----------3-----|--------0--------------0-----|

-----------6-----5--6-----|--1--------6-----5--6-----|
-----1--3-----1-----------|-----1--3-----1-----------|
--0-----------------------|--------------------------|
-----------------------5--|-----------------------5--|

--6--------6--1--------5--|-----------6-----6--------|
--4-----4-----------1-----|-----3--------3--------3--|
--------------2-----------|--0-----------------------|
-----5-----------3--------|--5-----5-----------5-----|

--------------------------|-----------5--------5-----|
-----1--------1--------1--|--3--3--------3--------1--|
--5-----------------------|--------------------------|
--------0--3-----0--3-----|--------4--------4--------|
H
-----6--------1--5--------|-----------5--6-5-----------|--L----------------||
--3--------3--1--------1--|--------3-------------3--3--|--L----------------||
--8-----------------------|--0----------------------0--|--L----------------||
--------5-----------3-----|--8--5-------------5-----5--|--L----------------||

Tab por , 28 feb 2017

Comentarios (0)

Ningún comentario :(
¿Necesitas ayuda, un consejo para compartir o simplemente quieres hablar sobre esta canción? Comience la discusión

Comentar
¡Comparte tus patrones de rasgueo, acordes o consejos para tocar este tab!

Acerca de esta canción: Bloom Nobly, Cherry Blossoms Of Sumizome ~ Border Of Life

No hay información por esta canción.

¿Has versionado a Bloom Nobly, Cherry Blossoms Of Sumizome ~ Border Of Life con tu Ukelele? Comparte tu trabajo!
Submit a cover