Main Theme (Intro) Tab por Zelda

tablatura Ukulele sin acordes.

ImprimirAñadir esta tab a su SongBook
Tablature / ChordsFont size: A- A A+

¿ No sabe cómo leer una tablatura o un acorde ?

curso de ukulele

A|------------------0--1--3----3--3--4--6--8---|
E|--1------1--1--------------------------------|
C|----0----------------------------------------|
G|----------------0----------------------------|



A|--8--8--6--4--6--4--3-----3--1-1-3-4---------|
E|---------------------------------------------|
C|---------------------------------------------|
G|---------------------------------------------|



A|--3--1------1-3----1---------------1---5--3--|
E|--------4-4------------4--3--3--4------------|
C|---------------------------------------------|
G|---------------------------------------------|

 

Comentarios (0)
Ningún comentario :(
¿Necesitas ayuda, un consejo para compartir o simplemente quieres hablar sobre esta canción? Comience la discusión

Debes iniciar sesión para unirte a la discusión
o Registrarse

 

Acerca de esta canción

No hay información por esta canción.