I Can Get Back Up Now Tab por You Me And Everyone We Know

tablatura Ukulele sin acordes.

Añadir esta tab a su SongBook
Tablature / ChordsFont size: A- A A+

¿ No sabe cómo leer una tablatura o un acorde ?

curso de ukulele

A|-----------------------------------------|
E|----------------6-6-----6-6-----4-6------|
C|6--6--6--6--3-3-----3-3-----3-3-----3----|
G|-4--4--4--4-4-4-6-6-4-4-6-6-4-4-4-6-4----|

A|-----------------------------------------|
E|----------------6-6-----6-6-4-4---6-4----|
C|6--6--6--6--3-3-----3-3---------3--------|
G|-4--4--4--4-4-4-6-6-4-4-6-6-4-4-4-6-4----|

A|----------------------------------------------|
E|----------------------------------------------|
C|6--3-----------3---3----6--3-------3---3------| G|-----6-4-1-4-6---6-----------6-4-6---6---6-4--|
S
A|-2-2-2-2-2-2-2-2-2-2-----------------------------------------------------|
E|-2-2-2-2-2-2-2-2-2-2---4-4-4-4-4-4-4-4-7-7-7-7-6-6-7-7-6-6-7-7-6-6-6-6-6-|
C|-----------------------1-1-1-1-1-1-1-1-4-4-4-4-3-3-4-4-3-3-4-4-3-3-3-3-3-|
G|-4-4-4-4-4-4-4-4-4-4---6-6-6-6-6-6-6-6-9-9-9-9-8-8-9-9-8-8-9-9-8-8-8-8-8-|
A|-6-6-6-6-6-6-6-6-4-4-4-4-4-4-4-2----------------------------|
E|-6-6-6-6-6-6-6-6-4-4-4-4-4-4-4-2----------------------------|
C|-8-8-8-8-8-8-8-8-6-6-6-6-6-6-6-4----------------------------|
G|------------------------------------------------------------|

A|-----------------------------------------------------------|
E|-4-----------------------4---------------------------------|
C|-----------------6------------------------6----------------|
G|-----4---6---8-------8--------4---6---8--------8---6-------|
S
A|-2-2-2-2-2-2-2-2-2-2--------------------------------------------------------|
E|-2-2-2-2-2-2-2-2-2-2---4-4-4-4-4-4-4-4-7-7-7-7-6-6-7-7-6-6-7-7-6-6-6-6-6--0-|
C|-----------------------1-1-1-1-1-1-1-1-4-4-4-4-3-3-4-4-3-3-4-4-3-3-3-3-3(x-)|
G|-4-4-4-4-4-4-4-4-4-4---6-6-6-6-6-6-6-6-9-9-9-9-8-8-9-9-8-8-9-9-8-8-8-8-8----|
A|-6-6-6-6-6-6-6-6-4-4-4-4-4-4-4-2----------------------------|
E|-6-6-6-6-6-6-6-6-4-4-4-4-4-4-4-2----------------------------|
C|-8-8-8-8-8-8-8-8-6-6-6-6-6-6-6-4----------------------------|
G|------------------------------------------------------------|

A|-----------------------------------------------------------|
E|-4-----------------------4---------------------------------|
C|-----------------6------------------------6----------------|
G|-----4---6---8-------8--------4---6---8--------8---6-------|

A|-----------------------------------------|
E|----------------6-6-----6-6-----4-6------|
C|6--6--6--6--3-3-----3-3-----3-3-----3----|
G|-4--4--4--4-4-4-6-6-4-4-6-6-4-4-4-6-4----|

A|-----------------------------------------|
E|----------------6-6-----6-6-4-4---6-4----|
C|6--6--6--6--3-3-----3-3---------3--------|
G|-4--4--4--4-4-4-6-6-4-4-6-6-4-4-4-6-4----|

 

Comentarios (0)
Ningún comentario :(
¿Necesitas ayuda, un consejo para compartir o simplemente quieres hablar sobre esta canción? Comience la discusión

Debes iniciar sesión para unirte a la discusión
o Registrarse

 

Acerca de esta canción

No hay información por esta canción.