Roundabout (Intro) Tab por Yes

tablatura Ukulele sin acordes.

ImprimirAñadir esta tab a su SongBook
Tablature / ChordsFont size: A- A A+

¿ No sabe cómo leer una tablatura o un acorde ?

curso de ukulele

A |--------7-----2-0---------0-----------7-----2-0------------|
E |--0-----7---------5-3-2--------0------7----------5-3-2-----|
C |--------7------------------------------7--------------------|
G |-------------------------------------------------------------|

A |---------------------------7-----2-0------------|
E |--2-3-5-------------0-----7----------5-3-2-----|
C |---------2-4-5-0----------7---------------------|
G |-------------------------------------------------|

A |--9-10-10/7-7--------------------------------| }
E |---------------10-8-7-10-7-8-------------0--| }
C |------------------------------9-11-7-9-6-----| }
G |----------------------------------------------| }

OR

A |--9-10-10/7-7-5-3-2-5-2-3-0-2----0-----| }
E |----------------------------------3----0--| }
C |-------------------------------------------| }
G |-------------------------------------------| }

 

Comentarios (2)
Debes iniciar sesión para unirte a la discusión
o Registrarse

 

WeabooTrash avatar
Is this a JoJo reference?
23 Dec 2018
letsblowitup avatar
to be continued...
02 May 2018
Acerca de esta canción

No hay información por esta canción.