Good Friday (Riff) Tab por Why?

tablatura Ukulele sin acordes.

ImprimirAñadir esta tab a su SongBook
Tablature / ChordsFont size: A- A A+

¿ No sabe cómo leer una tablatura o un acorde ?

curso de ukulele

A-----------------------------
E---------0-------0-------0---
C---0---0-------0-------0-----
G-----------0-------0-------2-

A-----------------------------
E----0-------0-------0--------
C--0-------0-------0----------
G------2-------2------0-------

then start from the beginning minus the very first open C C string, and repeat throughout the whole song.

 

Comentarios (0)
Ningún comentario :(
¿Necesitas ayuda, un consejo para compartir o simplemente quieres hablar sobre esta canción? Comience la discusión

Debes iniciar sesión para unirte a la discusión
o Registrarse

 

Acerca de esta canción

No hay información por esta canción.