E Tab por Welcome

1 Acordes utilizados en la canción :

Añadir esta tab a su SongBook

Ver esos acordes para el baritono

Transpose chords:
Tablature / ChordsFont size: A- A A+

¿ No sabe cómo leer una tablatura o un acorde ?

curso de ukulele


A|-----2--2-2-2----2--2-2-2--2--2-2-2---2-|
E|-----------------------------------1----|
C|--------------0----------2---------2----|
G|--0----0-0-0--0----0-0-0-0---0-0-0------|



A|-2-2-2---0--0-0-0---------2-2-2-2-2-2-2-|
E|1-1-1-0----0-0-0---------3-3-3-3-1-1-1-1|
C|------0-------------------2-2-2-22-2-2-2|
G|-----------------000000000-0-0-0--0-0-0-|



A|2---0-0-0-0-3p1-08----------------------|
E|---0-0-0-0------------------------------|
C|----0-0-0-0-----------------------------|
G|0--0-0-0-0------------------------------|

 

Comentarios (0)
Ningún comentario :(
¿Necesitas ayuda, un consejo para compartir o simplemente quieres hablar sobre esta canción? Comience la discusión

Debes iniciar sesión para unirte a la discusión
o Registrarse

 

Acerca de esta canción

No hay información por esta canción.