Heaven Can Wait Tab por We The Kings

tablatura Ukulele sin acordes.

Añadir esta tab a su SongBook
Tablature / ChordsFont size: A- A A+

¿ No sabe cómo leer una tablatura o un acorde ?

curso de ukulele

A-------------------------------------------------------------------------|
E-----3--------------5---------------------3---------------5-------5---3--|
C-------------------------------------------------------------------------|
G--7----4-5--7---5--4----4-5--7---5--4--7----4-5--7---5--4----5--4--------|

A----------------------------------2-2-2-2-2-2-2-2------------------|
E--------------------------------------------------0-0-0-0----------|
C--0-0-0-0-0-0-0-0-2-2-2-2-2-2-2-2-------------------------2-2-2-2--|
G-------------------------------------------------------------------|

A------------------------------------------------------|
E------------------5-----------------------------------|
C--0-0-0-0-0-0-0-0-2-----------------------------------|
G------------------7-----------------------------------|

A-------------------------------------------------------------------------|
E-----3--------------5---------------------3---------------5-------5---3--|
C-------------------------------------------------------------------------|
G--7----4-5--7---5--4----4-5--7---5--4--7----4-5--7---5--4----5--4--------|

A-------------------------------------------------------------------------|
E-----3--------------5---------------------3---------------5--------------|
C-------------------------------------------------------------------------|
G--7----4-5--7---5--4----4-5--7---5--4--7----4-5--7---5--4----5-----------|

A---5~~~~~~
E---5~~~~~~
C---7------
G----------|

 

Comentarios (0)
Ningún comentario :(
¿Necesitas ayuda, un consejo para compartir o simplemente quieres hablar sobre esta canción? Comience la discusión

Debes iniciar sesión para unirte a la discusión
o Registrarse

 

Acerca de esta canción

No hay información por esta canción.