Elephants (Riff) Tab por Warpaint

tablatura Ukulele sin acordes.

Añadir esta tab a su SongBook
Tablature / ChordsFont size: A- A A+

¿ No sabe cómo leer una tablatura o un acorde ?

curso de ukulele

A------6------6--------11-
E----7------7------9------
C--8------8------8---8----
G-------------------------

A------7-----7----6------
E----9-----9-----------7-
C--8-----8------8---8----
G------------------------

repeats throughout the whole song!

 

Comentarios (0)
Ningún comentario :(
¿Necesitas ayuda, un consejo para compartir o simplemente quieres hablar sobre esta canción? Comience la discusión

Debes iniciar sesión para unirte a la discusión
o Registrarse

 

Acerca de esta canción

No hay información por esta canción.