Billie Holiday Tab por Warpaint

tablatura Ukulele sin acordes.

Añadir esta tab a su SongBook
Tablature / ChordsFont size: A- A A+

¿ No sabe cómo leer una tablatura o un acorde ?

curso de ukulele

A|----0-----3---0------2---------2---------2------5---------5-------------|
E|--------0----------0-----3---------3----------------1----------0--------|
C|-----------------------------2---------2-----2----------2---------------|
G|------2---------2----------0---------0------------2----------2----------|

A|----0-----3---0------3---|----------------------------------------------|
E|--------0----------0-----|----------------------------------------------|
C|-------------------------|-------------5--------------------------------|
G|------2---------2--------|--------REPEA---------------------------------|

A|-0-----3--0-----3-|-------2-------2-|-0-----3--0-----3-|-------3--------3-|
E|-----0--------0---|-3--------3------|-----0--------0---|-----0--------0---|
C|------------------|-----2-------2---|------------------|-0--------0-------|
G|---2--------2-----|---0-------0-----|---2--------2-----|---0--------0-----|

A|---3--------3-----|-------2-------2-|-0-----3--0-----3-|-------3--------3-|
E|-1-----0--1-----0-|-3--------3------|-----0--------0---|-----0--------0---|
C|------------------|-----2-------2---|------------------|-0--------0-------|
G|-----2--------2---|---0-------0-----|---2--------2-----|---0--------0-----|

A|---3--------3-----|-------2-------2-|
E|-1-----0--1-----0-|-3--------3------|
C|------------------|-----2-------2---|
G|-----2--------2---|---0-------0-----|

 

Comentarios (0)
Ningún comentario :(
¿Necesitas ayuda, un consejo para compartir o simplemente quieres hablar sobre esta canción? Comience la discusión

Debes iniciar sesión para unirte a la discusión
o Registrarse

 

Acerca de esta canción

No hay información por esta canción.