Redesign Me Tab por VersaEmerge

tablatura Ukulele sin acordes.

Añadir esta tab a su SongBook
Tablature / ChordsFont size: A- A A+

¿ No sabe cómo leer una tablatura o un acorde ?

curso de ukulele

~    
A|---6-----6-----6-----6-----6-------6-----6-----6-----6--------|
E|-3-----3-----3-----3-----6-----6-3-----6-----3-----3------3---|
C|----------------------------------------------------------2---|
G|-----5-----5-----5-----5-----5-------5-----5-----5-----5--4---|
A|-6--8--10---1-|
E|-6--8--10---1-|
C|-8--10--12---3-|
G|-8--10--12---3-|
A|-6666666655555-|
E|-6666666655555-|
C|-8888888877777-|
G|---------------|

A|----8----------8----|
E|-3-----3---3------|
C|------------------|
G|----8---------8---|

 

Comentarios (0)
Ningún comentario :(
¿Necesitas ayuda, un consejo para compartir o simplemente quieres hablar sobre esta canción? Comience la discusión

Debes iniciar sesión para unirte a la discusión
o Registrarse

 

Acerca de esta canción

No hay información por esta canción.