Brown Eyed Girl Tab por Van Morrison

5 Acordes utilizados en la canción: F, Bb, A, C7, Dm

Añadir esta tab a su SongBook
Tablature / ChordsFont size: A- A A+

¿ No sabe cómo leer una tablatura o un acorde ?

curso de ukulele

Intro x2

A---x-------x---x---|-------x---x-------|---1-------3---5---|-------3---2-------|
E---1-------3---5---|-------3---1-------|---x-------x---x---|-------x---x-------|
C---x-------x---x---|-------x---x-------|---2-------3---5---|-------3---2-------|
G---2-------3---5---|-------3---2-------|---x-------x---x---|-------x---x-------|


A---x-------x---x---|-------x---x-------|---x---------------|
E---1-------3---5---|-------3---1-------|---0---------------|
C---x-------x---x---|-------x---x-------|---x---------------|
G---2-------3---5---|-------3---2-------|---0---------------|

Verse 1

F F Hey, where did Bb Bb we go? F F days when the C7 C7 rains came
F F Down in the Bb Bb hollow F F playin' a C7 C7 new game
F F Laughing and a - Bb Bb running, hey hey,
F F Skipping and a - C7 C7 jumping
F F In the misty Bb Bb morning fog with
F F Our C7 C7 hearts a - thumping and Bb Bb you

Chorus

C7 C7 My brown-eyed F F girl Dm Dm
Bb Bb You, my C7 C7 brown-eyed girl F F C7 C7

Verse 2

F F Whatever Bb Bb happened F F to Tuesday and C7 C7 so slow
F F Going down the Bb Bb old mine with a F F transistor C7 C7 radio
F F Standing in the Bb Bb sunlight laughing
F F Hiding behind a C7 C7 rainbow's wall
F F Slipping and a - Bb Bb sliding
F F All along the C7 C7 waterfall with Bb Bb you

Chorus

C7 C7 My brown-eyed F F girl Dm Dm
Bb Bb You, my C7 C7 brown-eyed girl F F C7 C7

Bridge

C7 C7 Do you remember when we used to F F sing:
Sha la la Bb Bb la la la la F F la la la la di C7 C7 da
F F Sha la la Bb Bb la la la la F F la la la la di C7 C7 da
La di F F da C7 C7

Verse 3

F F So hard to Bb Bb find my way, F F now that I'm all C7 C7 on my own
F F I saw you just the Bb Bb other day, F F my, how C7 C7 you have grown
F F Cast my memory Bb Bb back there, lord
F F Sometimes I'm C7 C7 overcome thinking 'bout
F F Making love in the Bb Bb green grass
F F Behind the C7 C7 stadium with Bb Bb you

Chorus

C7 C7 My brown-eyed F F girl Dm Dm
Bb Bb You, my C7 C7 brown-eyed girl F F

 

Comentarios (2)
Debes iniciar sesión para unirte a la discusión
o Registrarse

 

ukeluv8 avatar
Just change the C7 to C. That sounds a lot better.
12 Jul 2017
TrackStar27 avatar
flag for US(ISO2) (Solon)
The riff is not very good.
18 Oct 2015
Acerca de esta canción

No hay información por esta canción.