Left 4 Dead 2 Main Theme (Riff) Tab por Valve Studio Orchestra

tablatura Ukulele sin acordes.

ImprimirAñadir esta tab a su SongBook
Tablature / ChordsFont size: A- A A+

¿ No sabe cómo leer una tablatura o un acorde ?

curso de ukulele

A|---0---0---0---0----------------------------------------------------|
E|-5---5---5---5-----5---5---5---5---------------------5---5---5---5--|
C|-----------------4---4---4---4---5--2-4-2-2-2-5--2-4---4---4---4----|
G|--------------------------------------------------------------------|


A|----------------------------------------------------------------------|
E|-------------5---5--------------------------------------5---5---5---5-|
C|-5----5----4---4---4-2-4-2-4-2-4-2--5--2-5-2----2-2-2-4---4---4---4---|
G|----4----4------------------------------------6-----------------------|


A|--------------------------------------0-----0---0----0---0---0---0---0-|
E|---------------------5---5---5---5------------6--------5---5---5---5---|
C|-5--2-4-2-2-2-5--2-4---4---4---4---3-----------------------------------|
G|-----------------------------------------6--------5--------------------|

 

Comentarios (0)
Ningún comentario :(
¿Necesitas ayuda, un consejo para compartir o simplemente quieres hablar sobre esta canción? Comience la discusión

Debes iniciar sesión para unirte a la discusión
o Registrarse

 

Acerca de esta canción

No hay información por esta canción.