Follow Me Tab por Uncle Kracker

4 Acordes utilizados en la canción: G, C, F, Bb

Añadir esta tab a su SongBook
Tablature / ChordsFont size: A- A A+

¿ No sabe cómo leer una tablatura o un acorde ?

curso de ukulele

|---------------------------|
|-3h5-3-1---1-------1h3-3h5-|
|---------2---2-0-----------|
|-----------------2---------|

|-------------------------|
|-3h5-3-1---1-------1h3-1-|
|---------2---2-0---------|
|-----------------2-------|

Verse and Chorus: F F - Bb Bb - C C
Bridge: G G - C C - F F - Bb Bb - G G - C C

 

Comentarios (0)
Ningún comentario :(
¿Necesitas ayuda, un consejo para compartir o simplemente quieres hablar sobre esta canción? Comience la discusión

Debes iniciar sesión para unirte a la discusión
o Registrarse

 

Acerca de esta canción

No hay información por esta canción.