C Scale And F Scale Tab por Ukulele Lessons

tablatura Ukulele sin acordes.

9/10
ImprimirAñadir esta tab a su SongBook

Tablature / Chords (Canción simplificada)

Font size: A- A A+

Artista: 
Album:  desconocido
Dificultad: 
1.5
(Principiante)
Key: C, F, Dm, Amtablatura (sin acordes )
C C SCALE

A------------0-2-3-3-2-0----------
E------0-1-3-------------3-1-0----
C--0-2-------------------------2-0
G---------------------------------

F F SCALE


A------0-1-3-5-7-8-8-7-5-3-1-0-----
E--1-3-------------------------3-1-
C----------------------------------
G----------------------------------

Tab por , 14 mar 2010

Comentarios (0)

Ningún comentario :(
¿Necesitas ayuda, un consejo para compartir o simplemente quieres hablar sobre esta canción? Comience la discusión

Comentar
¡Comparte tus patrones de rasgueo, acordes o consejos para tocar este tab!

Top Tabs & Acordes de Ukulele Lessons, ¡no te pierdas estas canciones!

Acerca de esta canción: C Scale And F Scale

No hay información por esta canción.

¿Has versionado a C Scale And F Scale con tu Ukelele? Comparte tu trabajo!
Submit a cover