Troupe Master Grimm - Hollow Knight (Intro) Tab por Themes

tablatura Ukulele sin acordes.

ImprimirAñadir esta tab a su SongBook
Tablature / ChordsFont size: A- A A+

¿ No sabe cómo leer una tablatura o un acorde ?

curso de ukulele

A|-5-0-3-5-7-0-5-7-8-0-5-8-7-0-2-3-|
E|---------------------------------|
C|-2-------------------------------|
G|---------------------------------|



A|-5-0-3-5-7-0-5-7-------------|
E|-----------------3--3--1--0--|
C|-----------------------------|
G|-----------------------------|

 

Comentarios (0)
Ningún comentario :(
¿Necesitas ayuda, un consejo para compartir o simplemente quieres hablar sobre esta canción? Comience la discusión

Debes iniciar sesión para unirte a la discusión
o Registrarse

 

Acerca de esta canción

No hay información por esta canción.