Ponyo On The Cliff - Main Theme (Intro) Tab por Themes

tablatura Ukulele sin acordes.

ImprimirAñadir esta tab a su SongBook
Tablature / ChordsFont size: A- A A+

¿ No sabe cómo leer una tablatura o un acorde ?

curso de ukulele

A|3-0-------------0-5-3---0-1-----1-0---0----------|
E|----1---------1-------------3-3-----1---3---0-1-3|
C|------0-0-0-2-----------------------------2------|
G|-------------------------------------------------|


A|3-0-------------0-5-3---0-1-----1-0---0------|
E|----1---------1-------------3-3-----1---3-0-1|
C|------0-0-0-2--------------------------------|
G|---------------------------------------------|

Maybe I will update the rest another day ~



Please rate my tab, and don't hesitate to leave a comment ! :)

 

Comentarios (0)
Ningún comentario :(
¿Necesitas ayuda, un consejo para compartir o simplemente quieres hablar sobre esta canción? Comience la discusión

Debes iniciar sesión para unirte a la discusión
o Registrarse

 

Acerca de esta canción

No hay información por esta canción.