Jeopardy Tab por Themes

tablatura Ukulele sin acordes.

9.3/10
ImprimirAñadir esta tab a su SongBook

Tablature / Chords (Canción entera)

Font size: A- A A+

Artista: 
Album:  desconocido
Key: desconocidotablatura (sin acordes )
A|--3-------3-----3-5-7-5-3-2-0--------------------|
E|----------------------------------------|
C|------0----------------------------------|
G|-0--0---0--0--0-----------------------------|



A|--3-------3----3-0--------------------------|
E|-------------------3-1--------------------|
C|------0-----------------2-0----------------|
G|-0--0---0---0-------------------------------|

Tab por , 12 ene 2019

Comentarios (1)

Comentar
¡Comparte tus patrones de rasgueo, acordes o consejos para tocar este tab!
Filtrar por:
Spookyboi1080 avatar
Great
15 Jan 2020
Comentario

Top Tabs & Acordes de Themes, ¡no te pierdas estas canciones!

Acerca de esta canción: Jeopardy

No hay información por esta canción.

¿Has versionado a Jeopardy con tu Ukelele? Comparte tu trabajo!
Submit a cover