Walking With A Ghost Tab por The White Stripes

1 Acordes utilizados en la canción: A

Añadir esta tab a su SongBook
Tablature / ChordsFont size: A- A A+

¿ No sabe cómo leer una tablatura o un acorde ?

curso de ukulele

# Note: The E E chord displayed above is very similar to the one 
# I use in my tab. (A A:2, E E:4, C C:4, G G:4) Feel free to use
# whichever one you're most comfortable with.

# Tablature Legend
# ----------------
# br - Bend-Release

# (6x)
A||--1--1------0--0------|--2--2------2----0----||
E||o-2--2------2--2------|--4--4------4----2---o||
C||o-1--1------2--2------|--4--4------4----2---o||
G||--3--3------2--2------|--4--4------4----2----||

# (4x)
||--4--4------0--0------|--2--2------2----0----||
||o-1--1------0--0------|--2--2------2----0---o||
||o-1--1------1--1------|--3--3------3----1---o||
||--1--1------2--2------|--4--4------4----2----||

# (4x)
||--1--1------0--0------|--2--2------2----0----||
||o-2--2------2--2------|--4--4------4----2---o||
||o-1--1------2--2------|--4--4------4----2---o||
||--3--3------2--2------|--4--4------4----2----||

# (4x)
||--4--4------0--0------|--2--2------2----0----||
||o-1--1------0--0------|--2--2------2----0---o||
||o-1--1------1--1------|--3--3------3----1---o||
||--1--1------2--2------|--4--4------4----2----||

# (4x)
||--------7--7--------7--7--||
||o-6--6--------6--6-------o||
||o------------------------o||
||--------------------------||

# (2x)
||--1--1------0--0------|--2--2------2----0----||
||o-2--2------2--2------|--4--4------4----2---o||
||o-1--1------2--2------|--4--4------4----2---o||
||--3--3------2--2------|--4--4------4----2----||

# (2x)
||--4--4------0--0------|--2--2------2----0----||
||o-1--1------0--0------|--2--2------2----0---o||
||o-1--1------1--1------|--3--3------3----1---o||
||--1--1------2--2------|--4--4------4----2----||

# (4x)
||--1--1------0--0------|--2--2------2----0----||
||o-2--2------2--2------|--4--4------4----2---o||
||o-1--1------2--2------|--4--4------4----2---o||
||--3--3------2--2------|--4--4------4----2----||

# (2x)
|--7br----------------||--------6--7--------6--7--||
|---------------------||o-6--7--------6--7-------o||
|---------------------||o------------------------o||
|---------------------||--------------------------||

# (2x) (2x)
||--5--4--------5--4--------||--------6--7--------6--7--||
||o-------5--3--------5--3-o||o-6--7--------6--7-------o||
||o------------------------o||o------------------------o||
||--------------------------||--------------------------||


|--5--4--------5--4--------|--4--3--------4--3--------|
|--------5--3--------5--3--|--------4--2--------4--2--|
|--------------------------|--------------------------|
|--------------------------|--------------------------|

# (2x)
||--1--1------0--0------|--2--2------2----0----||
||o-2--2------2--2------|--4--4------4----2---o||
||o-1--1------2--2------|--4--4------4----2---o||
||--3--3------2--2------|--4--4------4----2----||

# (4x)
||--4--4------0--0------|--2--2------2----0----||
||o-1--1------0--0------|--2--2------2----0---o||
||o-1--1------1--1------|--3--3------3----1---o||
||--1--1------2--2------|--4--4------4----2----||

# (4x)
||--1--1------0--0------|--2--2------2----0----||
||o-2--2------2--2------|--4--4------4----2---o||
||o-1--1------2--2------|--4--4------4----2---o||
||--3--3------2--2------|--4--4------4----2----||


|--4----------------||
|--1----------------||
|--1----------------||
|--1----------------||

 

Comentarios (0)
Ningún comentario :(
¿Necesitas ayuda, un consejo para compartir o simplemente quieres hablar sobre esta canción? Comience la discusión

Debes iniciar sesión para unirte a la discusión
o Registrarse

 

Acerca de esta canción

No hay información por esta canción.