Seven Nation Army (Riff) Tab por The White Stripes

1 Acordes utilizados en la canción:

Añadir esta tab a su SongBook
Tablature / ChordsFont size: A- A A+

¿ No sabe cómo leer una tablatura o un acorde ?

curso de ukulele

A|-7--7--10--7--5--3--2---------------|
E|-7--7--10--7--5--3--2---------------|
C|-8--8--11--8--6--4--3---------------|
G|-9--9--12--9--7--5--4---------------|



A|-7--7--10--7--5--3--2---------------------------|
E|-7--7--10--7--5--3--2---------------------------|
C|-8--8--11--8--6--4--3---------------------------|
G|-9--9--12--9--7--5--4---------------------------|



A|-7--7--10--7--5--3--2---------------------------|
E|-7--7--10--7--5--3--2---------------------------|
C|-8--8--11--8--6--4--3---------------------------|
G|-9--9--12--9--7--5--4---------------------------|



A|-7--7--10--7--5--3--5--3--2-----------------------|
E|-7--7--10--7--5--3--5--3--2-----------------------|
C|-8--8--11--8--6--4--6--4--3-----------------------|
G|-9--9--12--9--7--5--7--5--4-----------------------|

 

Comentarios (0)
Ningún comentario :(
¿Necesitas ayuda, un consejo para compartir o simplemente quieres hablar sobre esta canción? Comience la discusión

Debes iniciar sesión para unirte a la discusión
o Registrarse

 

Acerca de esta canción

No hay información por esta canción.