Prickly Thorn, But Sweetly Worn (Riff) Tab por The White Stripes

6 Acordes utilizados en la canción: G, D, Dsus4, C, Em, A7sus4

Añadir esta tab a su SongBook
Tablature / ChordsFont size: A- A A+

¿ No sabe cómo leer una tablatura o un acorde ?

curso de ukulele

# . . .and this fancier G G:

# Fancy G G
# |
A||--2--||
E||--3--||
C||--2--||
G||--4--||
# __________

# D D Dsus4 Dsus4 D D C C Em Em C C Em Em A7sus4 A7sus4
# | | | | | | | | | | | | | | | | | |
A||--0--0-0-0--0--0--0--0--0--|--3--3-3-3--3--2--3--2--0--|
E||--2--2-2-2--2--3--3--2--2--|--0--0-0-0--0--3--0--3--0--|
C||--2--2-2-2--2--2--2--2--2--|--0--0-0-0--0--4--0--4--2--|
G||--2--2-2-2--2--0--0--2--2--|--0--0-0-0--0--0--0--0--0--|

# G G Fancy G G D D Dsus4 Dsus4 D D
# | | | | | | | | | | | | | | | |
|--2--2-2-2--2--2----2----|--0--0-0-0--0--0--0--0--0--||
|--3--3-3-3--3--3----3----|--2--2-2-2--2--3--3--2--2--||
|--2--2-2-2--2--2----2----|--2--2-2-2--2--2--2--2--2--||
|--0--0-0-0--0--4----4----|--2--2-2-2--2--0--0--2--2--||

# Keep in mind that the entire song does not follow these four
# bars played repeatedly in this order. If you like what you
# hear here, I also have a tab for the entire song here on
# Ukulele-Tabs.com.

 

Comentarios (3)
Debes iniciar sesión para unirte a la discusión
o Registrarse

 

Ukulelinator avatar
The tab for the entire song is up! Enjoy!
04 Feb 2010
Ukulelinator avatar
Sounds like someone's requesting a tab for the entire song. I'll get right on that! :D
03 Feb 2010
ukemadness avatar
don't half ass like this, it's not very helpful to the beginner for whom tabs are generally intended for.
03 Feb 2010
Acerca de esta canción

No hay información por esta canción.