Offend In Every Way Tab por The White Stripes

4 Acordes utilizados en la canción: G, F, D, C

Añadir esta tab a su SongBook
Tablature / ChordsFont size: A- A A+

¿ No sabe cómo leer una tablatura o un acorde ?

curso de ukulele

Intro:
A|-5-3-1-0----|--0-1-3-----|-3-1-3-5-----|--------5-5|
E|--------3-3-|-3------1-1-|---------3-3-|-3-1-3-5---|
C|------------|------------|-------------|-----------|
G|------------|------------|-------------|-----------|

A|---------------|---0-1-2-3-3-|-3-1-0-------|-----0-1-----|
E|-565-5-3-1-3-3-|-3-----------|-------3-1-1-|-1-3-----3-3-|
C|---------------|-------------|-------------|-------------|
G|---------------|-------------|-------------|-------------|

After the picking part it shifts into the chord part.
The chords (1 bar each) in order go: G G, F F, G G, D D, G G, C C, F F, G G.

Enjoy and Keep on Strumming!!

 

Comentarios (0)
Ningún comentario :(
¿Necesitas ayuda, un consejo para compartir o simplemente quieres hablar sobre esta canción? Comience la discusión

Debes iniciar sesión para unirte a la discusión
o Registrarse

 

Acerca de esta canción

No hay información por esta canción.