Wicked Games (Intro) Tab por The Weekend

tablatura Ukulele sin acordes.

ImprimirAñadir esta tab a su SongBook
Tablature / ChordsFont size: A- A A+

¿ No sabe cómo leer una tablatura o un acorde ?

curso de ukulele

A|--2--------5--9---2---0--------5--9-------------------|
E|-----2-------------------2----------------------------|
C|------------------------------------------------------|
G|--------4-------------------4-------------------------|
~ ~
A|--0------5--------------0------------5--9-------------|
E|---------------2------------3--3----------------------|
C|------7-----------------------------------------------|
G|------------4-----4---------------4-------------------|

 

Comentarios (0)
Ningún comentario :(
¿Necesitas ayuda, un consejo para compartir o simplemente quieres hablar sobre esta canción? Comience la discusión

Debes iniciar sesión para unirte a la discusión
o Registrarse

 

Acerca de esta canción

No hay información por esta canción.