Bittersweet Symphony (Riff) Tab por The Verve

tablatura Ukulele sin acordes.

Añadir esta tab a su SongBook
Tablature / ChordsFont size: A- A A+

¿ No sabe cómo leer una tablatura o un acorde ?

curso de ukulele

A||--------2-----0-----0----|--5--0--5----4--0--4----||
E||-----4-----4-----2-------|------------------------||
C||-------------------------|------------------------||
G||-------------------------|------------------------||

# Also, as a bonus, I'll add in this part as well:

A||-----------7-9-11-12-||
E||----7-9-10-----------||
C||---------------------||
G||---------------------||

 

Comentarios (4)
Debes iniciar sesión para unirte a la discusión
o Registrarse

 

Cate avatar
flag for US(ISO2) (helena)
woah good work
10 Jan 2010
Ukulelinator avatar
Hello, Dauke! I added a part to the tab. Is this what you were referring to?
10 Jan 2010
dauke avatar
flag for US(ISO2) (Chicago)
This was a great tab it was exactly on key. The only thing that it didn't have was the
du dududu du du du du du du du du du du (the dududud part if u can understand that)
23 Dec 2009
amberina26 avatar
flag for US(ISO2) (Somonauk)
It's pretty rights? is it really the 2 fret on the E string? not sure about that one. >.
20 Dec 2009
Acerca de esta canción

No hay información por esta canción.