Left Bank Two (Riff) Tab por The Noveltones

tablatura Ukulele sin acordes.

Añadir esta tab a su SongBook
Tablature / ChordsFont size: A- A A+

¿ No sabe cómo leer una tablatura o un acorde ?

curso de ukulele

A|-2---3---4---5-------7--2-5-------5-7-2-5-3---|
E|---3---3---3--------------------------------0-|
C|----------------------------------------------|
G|----------------------------------------------|
A|-5-3-2-1-0-----2---0---0-2---0---3-|
E|-----------------2---------2---3---|
C|-----------------------------------|
G|-----------------------------------|
A|-0-2-3-5-7---7-5-3---2-0-------2-0---|
E|-------------------------3-2-------3-|
C|-------------------------------------|
G|-------------------------------------|

A|-----------2-----------1-----------|
E|-----2---2-----2-0---0-----0-------|
C|-------------------2---------2-1-2-|
G|-0-----0---------------------------|

 

Comentarios (0)
Ningún comentario :(
¿Necesitas ayuda, un consejo para compartir o simplemente quieres hablar sobre esta canción? Comience la discusión

Debes iniciar sesión para unirte a la discusión
o Registrarse

 

Acerca de esta canción

No hay información por esta canción.