My Bolder (picking Intro) Tab por The King Blues

tablatura Ukulele sin acordes.

7/10
ImprimirAñadir esta tab a su SongBook

Tablature / Chords (

Font size: A- A A+

Artista: 
Album:  desconocido
Dificultad: 
3.25
(Principiante)
Key: G, Emtablatura (sin acordes )
For the picking Part Just hold down the chords and pick through the strings


Em Em C C D D Em Em
A-----2-2----|-----3-3----|-----0-0------|-----2-2----|
E---3-----3--|---0-----0--|---2-------2--|---3-----3--|
C-4---------4|-0---------0|-2-----------2|-4---------4|
G------------|------------|--------------|------------|
Em Em C C D D D D
A-----2-2----|-----3-3----|-----0-0------|-0-----0----|
E---3-----3--|---0-----0--|---2-------2--|---2-----2--|
C-4---------4|-0---------0|-2-----------2|-----2-----2|
G------------|------------|--------------|------------|
Em Em C C D D Em Em
A-----2-2----|-----3-3----|-----0-0------|-----2-2----|
E---3-----3--|---0-----0--|---2-------2--|---3-----3--|
C-4---------4|-0---------0|-2-----------2|-4---------4|
G------------|------------|--------------|------------|
Em Em C C
A-----2-2----|-----3-3----|
E---3-----3--|---0-----0--|
C-4---------4|-0---------0|
G------------|------------| D

Tab por , 10 mar 2010

Comentarios (0)

Ningún comentario :(
¿Necesitas ayuda, un consejo para compartir o simplemente quieres hablar sobre esta canción? Comience la discusión

Comentar
¡Comparte tus patrones de rasgueo, acordes o consejos para tocar este tab!

Top Tabs & Acordes de The King Blues, ¡no te pierdas estas canciones!

Acerca de esta canción: My Bolder (picking Intro)

No hay información por esta canción.

¿Has versionado a My Bolder (picking Intro) con tu Ukelele? Comparte tu trabajo!
Submit a cover