Here I Am Tab por The Explosion

3 Acordes utilizados en la canción: D, A, G

Añadir esta tab a su SongBook
Tablature / ChordsFont size: A- A A+

¿ No sabe cómo leer una tablatura o un acorde ?

curso de ukulele

# I actually put a lot of effort into this so if you give it a low rating
# at least comment and tell me what I can fix!

# Note: You can play either the intro tab or the chords for the chorus,
# I just find the chords easier to sing over.

# The verses involve a lot of palm muting, listen to the song to get the rhythm down!


(Intro)
A--------------------------------5-------------------------------------------------|
E--5--5--5--5--5--5--3-3-3-3-3-3----3-3-3-3-3-3—5-5-5-5-5-5-3-3-3-3-3-2-2-2-2-2-2--|
C----------------------------------------------------------------------------------|
G----------------------------------------------------------------------------------|


A----------------------------------------------------------------------------------|
E—0-0-0-0-0-0-0-0-0-0-2-3---------------0-0-0-0-0-0--------------------------------|
C-------------------------2-2-2-2-2-2---------------------------2-2-2-2-2-2--------|
G-------------------------------------0-------------0-0-0-0-0-0--------------------|

(Verse)
D D D D A A G G
There's poison in the boys in blue
D D A A G G
There's poison in the boys in blue
D D A A G G D D
Corruption, greed and feud are all I see
D D D D A A G G
You're in a disarray
D D A A G G
Things used to be a different way
D D A A G G D D
Whatever happened to the golden age
D D A A
It's gone, yeah, it's gone away

(prechorus)
C---4---4---4---4---4---4---4---4
E-3---2---0---2---5---2---3---2
# So don't ever turn your back again

# One false move and we're all dead

(Chorus)
D D A A G G
Here I am, here I am, here I am
A A G G D D
I'm back at the crossroads again
D D A A G G
Oh, let me stand, let me stand, let me stand
A A G G D D
On top of the mountain again

(verse)
(prechorus)
(chorus)

(Bridge)
D D A A G G
When we find a problem
D D A A G G
We never look back and say
D D A A G G
One chance, one moment
D D A A G G
It's gone so easily

(chorusX2)

 

Comentarios (0)
Ningún comentario :(
¿Necesitas ayuda, un consejo para compartir o simplemente quieres hablar sobre esta canción? Comience la discusión

Debes iniciar sesión para unirte a la discusión
o Registrarse

 

Acerca de esta canción

No hay información por esta canción.