In Hell I'll Be In Good Company Tab por The Dead South

4 Acordes utilizados en la canción: Gm, F, Cm, D7

10/10
ImprimirAñadir esta tab a su SongBook

Tablature / Chords (Canción entera)

Font size: A- A A+

Artista: 
Album:  desconocido
Dificultad: 
2.5
(Principiante)
Key: GmAcordes y tablaturas
Obviously sounds best on a banjolele ;)

Riff 1
A|-------5---------5---------5-----5---5-|
E|-------------------------------6---5---|
C|-5h7-------5h7-------5h7---------------|
G|-----0---0-----0---0-----0---0---------|

Riff 2
A|-----8-----8---5-9---5-9---5-|
E|---8-----8-------------------|
C|-9-----9-----2-----2-----2---|
G|-----------------------------|

Riff 3
A|-5-----3-----5-----6-----5-----3-----1-----0-------|
E|---6-----6-----6-----6-----6-----6-----3-----2---3-|
C|---------------------------------------------------|
G|-----0-----0-----0-----0-----0-----0-----0-----0---|


Intro(whistling)
Gm Gm F F Gm Gm Cm Cm Gm Gm D7 D7 Gm Gm

Riff 1 x2

Riff 2

Riff 1


Verse
Gm Gm
Dead Love couldn't go no further
Gm Gm
Proud of and disgusted by her
Gm Gm
Push shove, a little bruised and battered
D7 D7 Gm Gm
Oh Lord I ain't coming home with you
Gm Gm
My life's a bit more colder
Gm Gm
Dead wife is what I told her
Gm Gm
Brass knife sinks into my shoulder
D7 D7 Gm Gm (or Riff 3)
Oh babe don't know what I'm gonna do


Chorus
Gm Gm
I see my red head, messed bed, tear shed, queen bee, my squeeze

The stage it smells, tells, hell's bells, miss-spells
Cm Cm
Knocks me on my knees
Gm Gm
It didn't hurt, flirt, blood squirt, stuffed shirt
Cm Cm
Hang me on a tree
Gm Gm D7 D7 Gm Gm
After I count down, three rounds, in hell I'll be in good company


Riff 1 x2

Riff 2

Riff 1


Verse


Chorus

Riff 1 x2
D7 D7 Gm Gm
In hell I'll be in good company

Riff 1 x2
D7 D7 Gm Gm
In hell I'll be in good company


Outro(whistling)
Gm Gm F F Gm Gm Cm Cm Gm Gm D7 D7 Gm Gm

⇢ ¿No estás contento con esta tab? Ver 1 otra(s) versión(es)

Tab por , 25 mar 2018

Comentarios (2)

Comentar
¡Comparte tus patrones de rasgueo, acordes o consejos para tocar este tab!
Filtrar por:
XxBrokenxX avatar
Sounds great on my banjolele!!!
27 Aug 2020
Comentario
fnat avatar
I've been searching for this for weeks, forgot i had this Account. Ha!
11 Feb 2019
Comentario

Top Tabs & Acordes de The Dead South, ¡no te pierdas estas canciones!

Acerca de esta canción: In Hell I'll Be In Good Company

No hay información por esta canción.

¿Has versionado a In Hell I'll Be In Good Company con tu Ukelele? Comparte tu trabajo!
Submit a cover