The End (Solo) Tab por The Beatles

tablatura Ukulele sin acordes.

ImprimirAñadir esta tab a su SongBook
Tablature / ChordsFont size: A- A A+

¿ No sabe cómo leer una tablatura o un acorde ?

curso de ukulele

S      H         P                     
a------------------------------------------------------------------|
E------------5---------5--3------5------------5-3------------------|
d--4-4-4--4---------4--------2--------2----------------------------|
g------------------------------5----5-----5------------------------|
H P
a------------------------------------------------------------------|
E--3--5--3--5--------------5-----5-3--5-3---5------------5---------|
d---------------------------------------------4--2-----------------|
g---------------5-----5-------5---------------------5--------------|
P P P S
a----------------------------------------------------------7-------|
E---------------5------------5-----5-----------------------3-------|
d--7--7---7--7-----7---7--7-----7------7---7---7--7--7-------------|
g--4--4---4--4-----4---4--4-----4------4---4---4--4--4--5--5-------|
S
a---------7-------7-6-7------------|
E-------------5---------5-35-------|
d----------------------------------|
g-5-5-5-5---5---5------------5-7---|
H P
a---777---7777---777---------------------|
E-5-----5------5------2--2---------3-----|
d---------------------2--2-----2---------|
g---555---5555---555---b--r--5---5-------|
a------0--3b-5-3b--5--3--5-3-7-5-5--3--50------|
E-0--3-----------------------------------------|
d----------------------------------------------|
g----------------------------------------------|
S P P
a---------------------------------------------------0-0-|
E-3-3--3-3----------3-3--3--3-----------3-0--0----------|
d----------------------------------------------2--0-----|
g----------5-5--5-5-----------5-5--5-5------------------|
S S H P
a----------------------------------------|
E----3--3--5--------b------r-----------|
d--4-----------------------------------|
g-------------5---12------12----5--7--5--|
P P P P P P P
a-------------|------------------------|
E--5---3--5-3-|-5-3-5-3-5-3-5-3-5-3-5-3|
d--4------2---|-2---2---2---2---2---2--|
g------5----5-|---5---5---5---5---5---5|

 

Comentarios (0)
Ningún comentario :(
¿Necesitas ayuda, un consejo para compartir o simplemente quieres hablar sobre esta canción? Comience la discusión

Debes iniciar sesión para unirte a la discusión
o Registrarse

 

Acerca de esta canción

No hay información por esta canción.