Let It Be Solo (Solo) Tab por The Beatles

tablatura Ukulele sin acordes.

ImprimirAñadir esta tab a su SongBook
Tablature / ChordsFont size: A- A A+

¿ No sabe cómo leer una tablatura o un acorde ?

curso de ukulele

key: s - slide
b - bend


A|------------------------------7-7-5-3-5-3-7-12-10---|
E|--5-3-0---------3-3---3---3-5-----------------------|
C|--------2-0-0-4-----4---4---------------------------|
G|----------------------------------------------------|

A|--7-5-3-5--7-10-7-5-3-5---0-3-5-3-3-3-7-7-----------|
E|------------------------3---------------------------|
C|----------------------------------------------------|
G|----------------------------------------------------|

A|--3-7-b10-7-b10-7-b10-b12-----3-5-7-7-5-3-5-3-12----|
E|--------------------------3-5-----------------------|
C|----------------------------------------------------|
G|----------------------------------------------------|

A|--10-s7-5-s3-7---0-3-3------------------------------|
E|---------------3------------------------------------|
C|----------------------------------------------------|
G|----------------------------------------------------|

 

Comentarios (1)
Debes iniciar sesión para unirte a la discusión
o Registrarse

 

gopenguins3 avatar
flag for US(ISO2) (Pittsburgh)
very nice
19 Sep 2010
Acerca de esta canción

No hay información por esta canción.