All My Loving (Intro) Tab por The Beatles

tablatura Ukulele sin acordes.

ImprimirAñadir esta tab a su SongBook
Tablature / ChordsFont size: A- A A+

¿ No sabe cómo leer una tablatura o un acorde ?

curso de ukulele

--1-0-----0-1-3--5-7--8--8-7-5--5--5--5-5-3-1-0-------3---
-------3--------------5---------5-----6---------3-1-3-0---
-------2--------------5---------5-----5-------------3-0---
-------0--------------5---------7-----7-------------3-0---

--1-0-----0-1-3--5-7--8--8-7-5--5--5--5-5-3-1-0-------0---
-------3--------------5---------5-----6---------3-1-3-1---
-------2--------------5---------5-----5---------------0---
-------0--------------5---------7-----7---------------2---

--8-7-5-------------8-7-5-------10-8-10-8---
--------5--5-1-3-5--------5-1-----------5---
----------------------------------------5---
----------------------------------------5---
on the last fingerings use 4th finger for 10 and 3rd
finger on 8 and 1st finger on 5

 

Comentarios (2)
Debes iniciar sesión para unirte a la discusión
o Registrarse

 

smackers86 avatar
flag for US(ISO2) (Toledo)
The end still could use some work, but the first two lines of it are solid.
07 Jan 2012
Benpaco avatar
flag for US(ISO2) (California)
Pretty good. Some awkward transitions, but pretty good all the same.
07 Jan 2012
Acerca de esta canción

No hay información por esta canción.