Tokyo Drift (Intro) Tab por Teriyaki Boyz

tablatura Ukulele sin acordes.

ImprimirAñadir esta tab a su SongBook
Tablature / ChordsFont size: A- A A+

¿ No sabe cómo leer una tablatura o un acorde ?

curso de ukulele

A|-----------------|
E|-----------------|
C|-----------------|
G|-----0--0--0--0--|

A|----------3--------|----------3--------|----------3--------|
E|-------------------|-------------------|-------------------|
C|-------------------|-------------------|-------------------|
G|----0--1-----0---0-|----0--1-----0---0-|----0--1-----0---0-|

A|---------3--5---5-----8--6--5--3---3---8--6--5--3---3------|
E|-----------------------------------------------------------|
C|-----------------------------------------------------------|
G|---0--1----------------------------------------------------|

A|----------3--------|
E|-------------------|
C|-------------------|
G|----0--1-----0---0-|

 

Comentarios (0)
Ningún comentario :(
¿Necesitas ayuda, un consejo para compartir o simplemente quieres hablar sobre esta canción? Comience la discusión

Debes iniciar sesión para unirte a la discusión
o Registrarse

 

Acerca de esta canción

No hay información por esta canción.