Taylor Swift - Tim Mcgraw (Intro) Tab por Taylor Swift

tablatura Ukulele sin acordes.

ImprimirAñadir esta tab a su SongBook
Tablature / ChordsFont size: A- A A+

¿ No sabe cómo leer una tablatura o un acorde ?

curso de ukulele

a---5-7-5-----------7-------5-7-5-----------5-7-5------5--------|
E---------------------------------------------------------------|
d---------------------------------------------------------------|
g-------------5---------------------5---2-----------5-----------|

a---5-7-5--------5----5-3--3--3--3-2-3--------------------------|
E---------------------------------------------------------------|
d---------------------------------------------------------------|
g-----------5---------------------------------------------------|

 

Comentarios (0)
Ningún comentario :(
¿Necesitas ayuda, un consejo para compartir o simplemente quieres hablar sobre esta canción? Comience la discusión

Debes iniciar sesión para unirte a la discusión
o Registrarse

 

Acerca de esta canción

No hay información por esta canción.