Notion Tab por Tash Sultana

tablatura Ukulele sin acordes.

ImprimirAñadir esta tab a su SongBook
Tablature / ChordsFont size: A- A A+

¿ No sabe cómo leer una tablatura o un acorde ?

curso de ukulele

S                    S          S             
A|-----7---------7---------7---------7----|--4---------4----------4--2---------2--------------|
E|----------------------------------------|------3---------3----------2------3--3---3---|
C|0--0---0--0--0---0--0--0---0--0--0---0--|0-4-4---4--4--4---4--4-2-2---2--2------------|
G|9---------9---------9---------9---------|9-12--------12---------12-11--------11-16----4-----|
H ~~ ~~~ H ~~ ~~ ~~
A|----------|----------------------------|------------------------------|
E|-------5--|3--5-----3---------------5--|3--5-----3-----------------5--|
C|----------|----------------------------|------------------------------|
G|-7--4-----|-------------------7--4-----|---------------9-----7--4-----|
H ~~ ~~~ H ~~ ~~ ~~
A|-----------|-----------------------------|-------------------------------|
E|----------|----------------------------|---------------5--------------|
C|----------|----------------------------|------------------------------|
G|-12--9--7--|4--7-----4---------12--9--7--|4--7-----4-----------12--9--7--|

 

Comentarios (0)
Ningún comentario :(
¿Necesitas ayuda, un consejo para compartir o simplemente quieres hablar sobre esta canción? Comience la discusión

Debes iniciar sesión para unirte a la discusión
o Registrarse

 

Acerca de esta canción

No hay información por esta canción.