De Ziua Ta Tab por Talisman

tablatura Ukulele sin acordes.

¡Califica la canción!
ImprimirAñadir esta tab a su SongBook

Tablature / Chords (

Font size: A- A A+

Artista: 
Album: 
Año:  2006
Key: desconocidotablatura (sin acordes )
A|-----7-7-7--2-2---------------------------|
E|---5-------------8--7-8-8-8-7-5-----------|
C|------------------------------------------|
G|------------------------------------------|



A|----8-8-8--7-7-5-7----77---7p5-----5----7-5-5-3-5-3----------|
E|--5----------------------8-----------3----------------------|
C|------------------------------------------------------------|
G|------------------------------------------------------------|

Tab por , 28 feb 2014

Comentarios (0)

Ningún comentario :(
¿Necesitas ayuda, un consejo para compartir o simplemente quieres hablar sobre esta canción? Comience la discusión

Comentar
¡Comparte tus patrones de rasgueo, acordes o consejos para tocar este tab!

Top Tabs & Acordes de Talisman, ¡no te pierdas estas canciones!

Acerca de esta canción: De Ziua Ta

No hay información por esta canción.

¿Has versionado a De Ziua Ta con tu Ukelele? Comparte tu trabajo!
Submit a cover