Let That Be Enough Tab por Switchfoot

tablatura Ukulele sin acordes.

ImprimirAñadir esta tab a su SongBook
Tablature / ChordsFont size: A- A A+

¿ No sabe cómo leer una tablatura o un acorde ?

curso de ukulele

A|-----7---0------7-4--2---0---7-62-------7-0---7---4---2---0-7-7-7----
E|-0--------------------------------0----------------------------------
C|---------------------------------------------------------------------
G|---1---1---1-2p1----4--4---4--------1-1-----1---1---4---4---4-6-4----
A|-----7---0---7---4---2---0---7---------------------------------------
E|-0-------------------------------------------------------------------
C|---------------------------------------------------------------------
G|---1---1---1---1---4---4---4---4-------------------------------------

A|-----2---0-2---------2---0-2---------2---0-2-------------0-----------
E|---------------0---------------0---------------0-----0-------0-------
C|-6---------------4---------------6---------------4-------------------
G|---3---3-----2-----1---1-----2-----3---3-----2-----1---1---2---2-----

A|-(-2-------0-------)---0---2-----------------------------------------
E|-(-----2-------0---)-------------------------------------------------
C|-(-----------------)-------------------------------------------------
G|-(---4---4---4---4-)-----4---4---------------------------------------
P
A|-----2---0-------------2---0-----------------------------------------
E|-----------------0-----------0-0-0-----------------------------------
C|-4-----------------1-------------------------------------------------
G|---1---1---2-2-1-----4---4---4-6-4-----------------------------------

A|-----2---0-2---------2---0-2---------2---0-2-------2-----0-2---------
E|---------------0---------------0---------------0-------0-------0-----
C|-6---------------4---------------6---------------4-------------------
G|---3---3-----2-----1---1-----2-----3---3-----2-------1-------2-------

A|-(-2-------0-------)-------2-----------2-----------------------------
E|-(-----2-------0---)-----------2-------------------------------------
C|-(-----------------)---------------4---------------------------------
G|-(---4---4---4---4-)---------4---4---1---1---------------------------
P SS P
A|-----2---0-------------2---0--------------2---0-------------2---0-
E|-----------------0-------------0--2-0-----------------0-----------
C|-4-----------------1------------------4-----------------1---------
G|---1---1---2-2-1-----4---4---4----------1---1---2-2-1-----4---4---
SS
A|--------2--2---------------------------------------------------------
E|-0-0-------0---------------------------------------------------------
C|------3----4---------------------------------------------------------
G|-4---------1---------------------------------------------------------

 

Comentarios (0)
Ningún comentario :(
¿Necesitas ayuda, un consejo para compartir o simplemente quieres hablar sobre esta canción? Comience la discusión

Debes iniciar sesión para unirte a la discusión
o Registrarse

 

Acerca de esta canción

No hay información por esta canción.