One Your Name Tab por Swedish House Mafia

tablatura Ukulele sin acordes.

Añadir esta tab a su SongBook
Tablature / ChordsFont size: A- A A+

¿ No sabe cómo leer una tablatura o un acorde ?

curso de ukulele

A -------------------------------------------------------|
________-__-_5_5_5_5_5____5_5______-__-_5_5_5_5_5____5_5________________
C -5--3-_--_-_-_-_-_-_----_-_-5--3-_--_-_-_-_-_-_----_-_-|
G ------5--4-----------------------5--4------------------|

A ------------------------------------------------------------------|
___5_5______-__-_-__-__-__-__-_____-__-_______-__-____________________________________
C -_-_-5--3-_--_-_--_--_--_--_-----_--_--5--3-_--_-3-3-3-3-3----3-3-|
G ----------5--4-5--5--5--5--5-----5--5-------5--4------------------|

A ------------------------------------------------------------------|
____5_3_1_0_1_1_1_1_1____1_1_5_3_1_0_3_3_3_3_3____3_3________________________________
C --4-2-_-_-_-_-_-_-_----_-_-4-2-_-_-2-2-2-2-2----2-2---------------|
G ------5-4-5-5-5-5-5----5-5-----5-4--------------------------------|
A ----------------12-10--7----7-------|
E ------------------------10----------|
C -----------------------------------|
G -10--8-5--4-5--4--------------------|

A ----------------------------------|
___-__-__-__-__-__-__-__-__-_________________
C -5--5--5--5--5--5--5--5--5--------|
G -5--5--5--5--5--5--5--5--5--------|

A ---------------------------------------------------------------------|
____5_3_1_0_1_1_1_1_1____1_1_5_3_1_0_3_3_3_3_3____3_3_________________________________
C --4-2-_-_-_-_-_-_-_----_-_-4-2-_-_-2-2-2-2-2----2-2------------------|
G ------5-4-5-5-5-5-5----5-5-----5-4-----------------------------------|

A ------------------------------------------------------------------|
___5_5______-__-_-__-__-__-__-_____-__-_______-__-____________________________________
C -_-_-5--3-_--_-_--_--_--_--_-----_--_--5--3-_--_-3-3-3-3-3----3-3-|
G ----------5--4-5--5--5--5--5-----5--5-------5--4------------------|
A ----------------12-10--7----7-------|
E ------------------------10----------|
C -----------------------------------|
G -10--8-5--4-5--4--------------------|

A ------------------------------------------------------------------|
___5_5______-__-_-__-__-__-__-_____-__-_______-__-____________________________________
C -_-_-5--3-_--_-_--_--_--_--_-----_--_--5--3-_--_-3-3-3-3-3----3-3-|
G ----------5--4-5--5--5--5--5-----5--5-------5--4------------------|
A ----------------12-10--7----7-------|
E ------------------------10----------|
C -----------------------------------|
G -10--8-5--4-5--4--------------------|

A -----------------------------------------------------------|
___5_5______-__-_5_5_5_5_5____5_5______-__-_5_5_5_5_5____5_5_________________
C -_-_-5--3-_--_-_-_-_-_-_----_-_-5--3-_--_-_-_-_-_-_----_-_-|
G ----------5--4-----------------------5--4------------------|

 

Comentarios (0)
Ningún comentario :(
¿Necesitas ayuda, un consejo para compartir o simplemente quieres hablar sobre esta canción? Comience la discusión

Debes iniciar sesión para unirte a la discusión
o Registrarse

 

Acerca de esta canción

No hay información por esta canción.