Don't You Worry Child (Riff) Tab por Swedish House Mafia

1 Acordes utilizados en la canción:

Añadir esta tab a su SongBook
Tablature / ChordsFont size: A- A A+

¿ No sabe cómo leer una tablatura o un acorde ?

curso de ukulele

A|-2-2-2-0-2--3-3-3-----0-0-0------0-0-0----3|
E|-3-3-3------------3-0-1-1-1--3-0-1-1-1--3--|
C|-2-2-2----------------0-0-0------0-0-0-----|
G|------------2-2-2-----2-2-2------2-2-2-----|

A|2-2-2-0-2--3-3-3---10-7--12-12-12--10-7--12-12-12--5-3|
E|3-3-3--------------------13-13-13--------13-13-13-----|
C|2-2-2-------------------------------------------------|
G|-----------2-2-2--------------------------------------|

 

Comentarios (0)
Ningún comentario :(
¿Necesitas ayuda, un consejo para compartir o simplemente quieres hablar sobre esta canción? Comience la discusión

Debes iniciar sesión para unirte a la discusión
o Registrarse

 

Acerca de esta canción

No hay información por esta canción.