Mixtape #2 (Intro) Tab por Stray Kids

tablatura Ukulele sin acordes.

ImprimirAñadir esta tab a su SongBook
Tablature / ChordsFont size: A- A A+

¿ No sabe cómo leer una tablatura o un acorde ?

curso de ukulele

A|-------3-------------3-------|-------3--------------3-------|
E|----1-----1-------1-----1----|----1-----1--------1-----1----|
C|-0------------0------------0-|-2------------2-------------2-|
G|-----------------------------|------------------------------|

A|--------2-----------2--------|--------2-----------2---------|
E|-----0-----0-----0-----0-----|-----0-----0-----0------0-----|
C|--2-----------2-----------2--|--1-----------1------------1--|
G|-----------------------------|------------------------------|

A|-------7------------7--------|-------7----------------------|
E|-----------------------------|------------------------------|
C|--4---------4--3----------4--|--3---------4---3--3--3/2--0--|
G|----4-----4------4-----4-----|----4-----4-------------------|

 

Comentarios (0)
Ningún comentario :(
¿Necesitas ayuda, un consejo para compartir o simplemente quieres hablar sobre esta canción? Comience la discusión

Debes iniciar sesión para unirte a la discusión
o Registrarse

 

Acerca de esta canción

No hay información por esta canción.