Fairy Tail Main Theme (Intro) Tab por Steven Law

tablatura Ukulele sin acordes.

ImprimirAñadir esta tab a su SongBook
Tablature / ChordsFont size: A- A A+

¿ No sabe cómo leer una tablatura o un acorde ?

curso de ukulele

A|-0---2--0-----------------0--2--0--------------|
E|----------3--0-----0--3---------------------|
C|----------------2------------------------|
G|-2---------------------------------------|

A|-0---2--0-----------------3--2----------------|
E|----------3--0-----0--3---------------------|
C|-0--------------2------------------------|
G|----------------------------------------|

A|-0---2--0-----------------0--2--0--------------|
E|----------3--0-----0--3---------------------|
C|----------------2------------------------|
G|-0---------------------------------------|

A|-3---2--0--2--0-----------0-----3--2-------------|
E|----------------3--0--3------3---------------|
C|----------------------------------------|
G|-2---------------------------------------|

A|-0---2--0------------------0--2--0--------------|
E|-0---------3--0-----0--3---------------------|
C|-0---------------2------------------------|
G|-2---------------------------------------|

A|-0---2--0------------------3--2----------------|
E|-0---------3--0-----0--3---------------------|
C|-0---------------2------------------------|
G|-0---------------------------------------|

A|-0---2--0------------------0--2--0--------------|
E|-3---------3--0-----0--3---------------------|
C|-2---------------2------------------------|
G|-0---------------------------------------|

A|-3---2--0--2--0-----------0-----3--2-------------|
E|-3--------------3--0--3------3---------------|
C|-0-----------------2---------------------|
G|-2-----------------0----------------------|

A|-0---2--0------------------0-----------------|
E|-0---------3--0-----0--3---0---3----------------|
C|-0---------------2---------0---------------|
G|-2-------------------------2--------------|

A|-0---2--0------------------3--2----------------|
E|-0---------3--0-----0--3---0------------------|
C|-0---------------2---------0---------------|
G|-0-------------------------0--------------|

A|-0---2--0-------------------0--------------|
E|-3---------3--0-----0--3----3--3---------------|
C|-2---------------2----------2--------------|
G|-0--------------------------0-------------|

A|-3---2--0--2--0-----------0-----3--2---0----------|
E|-3--------------3--0--3------3--3------0-------|
C|-0-----------------2------------2------0---|
G|-2-----------------0------------0------2----|

 

Comentarios (0)
Ningún comentario :(
¿Necesitas ayuda, un consejo para compartir o simplemente quieres hablar sobre esta canción? Comience la discusión

Debes iniciar sesión para unirte a la discusión
o Registrarse

 

Acerca de esta canción

No hay información por esta canción.