Devil Went Down To Georgia Tab por Steve Ouimette

tablatura Ukulele sin acordes.

Añadir esta tab a su SongBook
Tablature / ChordsFont size: A- A A+

¿ No sabe cómo leer una tablatura o un acorde ?

curso de ukulele

A|----------------------------------------------------|
E|-------------------------------------------|
C|-------------------------------------------|
G|-7---7--9--10---10--12--14---14--15--14--12--10--9--|
~
A|------------------------------------------------|
E|-------------------------------------------|
C|-------------------------------------------|
G|-5---5--7--9--7--9--10--12--14--12--10--9-------|

A|----------------------------------------------------7---|
E|----------------------6--6-----6--5--3-5--3-1-1-3-1-----|
C|------------------------------------------------------2-|
G|-7--9--7--5--5--7--5--------5---------------------------|

A|---------------------------0---------------|
E|---------------------------------5---------|
C|-------2-2--------------------0--2---------|
G|-2--5--------------------------------------|

A|---------------------------------|
E|---------------------------------|
C|-4-4-4-4-4-4-4-4-4-4-4-4-4-4-4-4-|
G|---------------------------------|xA|------------------5--0--3--5-----|
E|-0-0-0-0-0-0-0-0-----------------|
C|---------------------------9-----|
G|---------------------------------|
H H H
A|-------------------------------------------|
E|-------------------------------------------|
C|------4-4-4-4-------4-4-4-4-------4-4------|
G|7--9----------7--9----------7--9-----------|
H H H
A|--------------------------------------------|
E|-------------------------------------------|
C|------4-4-4-4-------4-4-4-4-------4-4------|
G|7--9----------10--9----------7--9-----------|
H H H
A|-------------------------------------------|
E|-------------------------------------------|
C|------4-4-4-4-------4-4-4-4-------4-4------|
G|7--9----------7--9----------7--9-----------|
A|-------------------5--0---3----------------|
D|T-hJ--0-0-0-0-0-0--0-----------------------|
D|-------------------------------------------|
G|-------------------------------------------|
H H H
A|-------------------------------------------|
E|-------------------------------------------|
C|------4-4-4-4-------4-4-4-4-------4-4------|
G|7--9----------7--9----------7--9-----------|
H H H
A|--------------------------------------------|
E|-------------------------------------------|
C|------4-4-4-4-------4-4-4-4-------4-4------|
G|7--9----------10--9----------7--9-----------|
H H H
A|-------------------------------------------|
E|-------------------------------------------|
C|------4-4-4-4-------4-4-4-4-------4-4------|
G|7--9----------7--9----------7--9-----------|
H
A|------------------x-x-x-x-x-x-x-x----------|
E|-------------------------------------------|
C|------4-4-4-4-4-4-x-x-x-x-x-x-x-x----------|
G|7--9--------------x-x-x-x-x-x-x-x----------|

A|-x-x-----x-x-----x-x-----x-x---|
E|-----5-------5-------5-------5-|
C|-x-x-2---x-x-2---x-x-2---x-x-2-|
G|-x-x-7---x-x-7---x-x-7---x-x-7-|

A|-x-x-----x-x-----x-x-----x-x---|
E|-----3-------3-------3-------3-|
C|-x-x-0---x-x-0---x-x-0---x-x-0-|
G|-x-x-5---x-x-5---x-x-5---x-x-5-|

A|-x-x-7----x-x-7----x-x-7----x-x-7--|
E|-----10-------10-------10-------10-|
C|-x-x-7---x-x-7---x-x-7---x-x-7-|
G|-x-x-12---x-x-12---x-x-12---x-x-12-|

A|-x-x-----x-x-----x-x-----x-x---|
E|-----5-------5-------5-------5-|
C|-x-x-2---x-x-2---x-x-2---x-x-2-|
G|-x-x-7---x-x-7---x-x-7---x-x-7-|

A|-x-x-----x-x-----x-x-----x-x---|
E|-----5-------5-------5-------5-|
C|-x-x-2---x-x-2---x-x-2---x-x-2-|
G|-x-x-7---x-x-7---x-x-7---x-x-7-|

A|-x-x-----x-x-----x-x-----x-x---|
E|-----3-------3-------3-------3-|
C|-x-x-0---x-x-0---x-x-0---x-x-0-|
G|-x-x-5---x-x-5---x-x-5---x-x-5-|
A|-7---------------------------7---5---3---2-|
E|-7---------------------------7---5---3---2-|
C|-9---------------------------9---7---5---4-|
G|-------------------------------------------|

A|----------------------------------------------------|
E|-------------------------------------------|
C|-------------------------------------------|
G|-7---7--9--10---10--12--14---14--15--14--12--10--9--|
~
A|------------------------------------------------|
E|-------------------------------------------|
C|-------------------------------------------|
G|-5---5--7--9--7--9--10--12--14--12--10--9-------|

A|----------------------------------------------------7---|
E|----------------------6--6-----6--5--3-5--3-1-1-3-1-----|
C|------------------------------------------------------2-|
G|-7--9--7--5--5--7--5--------5---------------------------|

A|------------------|
E|------------------|
C|-------2----------|
G|-2--5-------------|

A|---------------------------------|
E|---------------------------------|
C|-4-4-4-4-4-4-4-4-4-4-4-4-4-4-4-4-|
G|---------------------------------|xA|------------------5--0--3--------|
D|-0-0-0-0-0-0-0-0-----------------|
D|---------------------------------|
G|---------------------------------|

A|-5---5-----------7---7--5-5--5-------------|
E|--------1-1--1-----------------------------|
C|-------------------------------------------|
G|-2?xx2-x5-5-x5-xx4-xx4-x2-2-x2-xx----------A|-5---------5-------------------------------|
E|-0-0-5-6-7---765-5-3-5-6-7-3-5-3-----------|
C|-9-----------------------------------------|
G|-------------------------------------------|x H P H P H P H P H P H P H P H
A|-------------------------------------------------|
E|-5--6--5--6--5--6--5--6--5--6--5--6--5--6--5--6--|
C|-------------------------------------------------|
G|-------------------------------------------------|
P P P
A|----------------------------------------------0-----------|
E|-22------------------------------------5-3-----3-|
C|-----------------------------------2-------4-4---|
G|----14-10-7--15--14--12--10--7--16--14--12----------------|
P H P H P H P
A|0------------------------------------------------|
E|------5-----5---------3-5---------------5---3-5--|
C|--4-5---2-5------2-5-----------------------------|
G|--------------5------------5-7--9--5-7----5-----5|
s
A|----------------------------------------------------|
E|-1-5--5------------------------------------------|
C|-------------------------------------------------|
G|--------5-7----7--10----10--14----------------------|
H P P H H P P H H P P H
A|-------------------------------------------------|
E|-5-----5---------5-----5---------5-----5---------|
C|---------6--5--6---------6--5--6---------6--5--6-|
G|----7---------------7---------------7------------|x H P
A|----------------------------------------------------------|
E|-5-----5----5--6--------------3--6--4--5----------------|
C|---------6----------------------------------------------|
G|----7-------------7--10--8--9--------------6--9--6--10--7-|

A|-------------------------------------------------|
E|-------------------------------------------------|
C|-------------------------------------------------|
G|-7--7--7--7--7--7--7--7--7--7--7--7--7--7--7--7--|

A|-----------------------------------------------------------|
E|-------------------------------------------------|
C|-------------------------------------------------|
G|-9--9--10--10--12--12--14--15--15--14--12--10--9--7--------|
H P P P H P P P H P P P H P P P H P P P H P P P H P P
A|-----------------------------------------------------------5-----5-3---5-3----|
E|-------------------------6--------6--3----6--3-1-6--3-1---3-1-----1--------|
C|---------------------------------------------------------------------------|
G|-7--12--10--7--5--10--7--5-----7--5-------5-----------------------------------|
H H P P H H P P P H P P H H H H H H H H P H H H H P
A|----------------------------------------7-----7------------2---------------|
E|---------4------------6-3--3-4-6----6-----1-3---1-35---------4-------------|
C|---2-------2--------------5-------2----2-----------------------------------|
G|-3---5-3-----5-3-0-5------------5----5---------------4-5-4-----------------|
H H P H H H H
A|------------------------------------------------------------0-2------------|
E|---1-2---2-3---3-4---4-5-------5---------------3-4--------5--------0-1-01--|
C|-2-----2-----2-----2-----2---2-------2--------------2-2---------02---------|
G|---------------------------5-----5-------x5-------5-----5------------------|
P H H H H H H H H H
A|-5-2-4----7-----5-6-7----------------------------------------------------------|
E|------0-----1-2----------5-------------------------------------------------|
C|---------------------------------------------------------------------------|
G|--------2-------------4----9--10--11--7--8--9--16---14-------------------------|
H P H P H P H P H P H P H P H H H H
A|-5---5---5---5---5---5---5---4-7-4---4-7-4-7----4-7----4-7-----------|
E|---1---1---1---1---1---1--------------------3--x---6--x---5x-x-b----|
C|--------------------------------------------------------------------|
G|----------------------------------------------------------------10---|

A|-------------------|
E|-5--0--b21---b----|
C|------------------|
G|--------------15---|
P P P P P P P P
A|----------------------------------------------------------------------------|
E|------------6--5-------------5--4-------------4--3-------------3-----|
C|------------------------------------------------------------------6--|
G|-15--12--9--7-------14--11--8--6-------13--10--7--5-------12--9--6--4-------|

A|-----------------------------------------------------------------------------|
E|----------------------------------------------------------------------|
C|----------------------------------------------------------------------|
G|-8--11--12--9--5--4--5--9--12--9--5--6--9--12--9--6--5--6--9--9--12--14--10--|

A|--------------------------------------------------------------------------------|
E|--------------------------------------------------------------------|
C|--------------------------------------------------------------------|
G|-5--10--14--10--8--6--8--10--14--13--5--4--8--10--14--10--8--10--14--10--6--8---|

A|--------------------------------------------------------------------------|
E|-------------------------------5--------5--3--------3---------------|
C|----------------------------------------------------------5---------|
G|-10--14--10--8--6--8--10--11--8--5-----8--5--------10--7-----7-----7--5---|
A|----15--12--10-------|
E|-------------12----|
C|------------------|
G|-7----------------|

A|--------------------|
E|------------------|
C|------------------|
G|-7--17-------17-----|
s
A|----------------------------------------------------------------------|
E|-5--------------3-----5--3-----5-----------5-----3--5--3--5--0-lide-|
C|--------------------------------------------------------------------|
G|----7--5--10--7-----10--------5-----9--5--9-----5---------------------|
H H H H P H P P H
A|---------------------------------------------------------------------------|
E|----------5---------3------3-5-3-5------5-3-5------5-3---------5------3----|
C|------5----------5------5-------------------------------5----------5-------|
G|-5--8---8---5--8------5------------7-5---------5-7--------8--5---5------5--|
H H H H H H P P P H
A|-------------------------------------------------------------------------------|
E|----3-5----3-5------3-5------5---5-------------------5-3-5------5--6-------|
C|-5------5------------------------------------------------------------------|
G|----------------5-7------5-7---7---7--10--12--10--7-5-10-------7-5-------------|
P H P H P P P H H P H H H H H H H
A|---------------------------------------------------------------------------|
E|---5----63----3-5-63-----3---------4-5---6-4-5-------5-------5-------3-----|
C|-------2----4---------4-5-5-4-2-0-2----2----------5------3-5-----3-5--2-5--|
G|-4---5-----------------------------------------5-------5-------5-----------|
H H P H H P H H P P P P P P H P
A|---------------------------------------------------------------------------------|
E|-3-5---3-----5--3-5-----5--3-----------------------------6--4-------6--5---|
C|-----5-----------------------5-------------------------------5--3-5--------|
G|--------7--10--------5-7---------5--7--10--12--14--12--10--7--5------------------|
P P H H P P P P
A|-------------------------------------------------------------------------5-|
E|-----------------------------------------5--3---------3--5--4--3---------4-|
C|-5--3-2--3--4----------------------------------5--6---------------5-6--2---|
G|----------------5--5--6--7--5------7--5----------------------------------4-|
H P H P H P H P H P H P H P H P P P H P H P s
A|---------------------------------------------------------------------------|
E|-5---------------6----6----6----6----6----6----6----6----5----4----3-------|
C|-2-------------------------------------------------------------------------|
G|-7-------------3----3----3----3----3----3----3----3----2----1----0----2-3--|

A|---------------------------------------------------------------------------|
E|-3-------------------------------------------------------------------------|
C|-0-------------------------------------------------------------------------|
G|-5--------------8----------------------------------------------------------|
H H P P H H P P H H P P H H P
A|--------------------------------------------------------------------------------|
E|-5------------------------------------------------------------b------------|
C|-2-------------------------------------------------------------------------|
G|-7-------------6--7--10--7--6--7--10--7--6--7--10--7--6--7--10--7--12-----------|
~
A|----------------------44------------44-----44----------------------------------|
E|-3-------------22----------------------------------------------------------|
C|-0-------------------------------------------------------------------------|
G|-5----------------17-----12--21-12-----12--------------------------------------|

A|-7---7-------7---7---7-------7---------------------------------------------|
E|---1---1-3-1-------1---1-3-1---------------------1-3-1-3-5-3-3-------------|
C|---------------2---------------2-4---2---2-4-2-4---------------------------|
G|-----------------------------------5---5-----------------------------------|x
A|-44-------------------------------------------------7---4-5-2-4---------------|
E|----------------------------------5-----4-5--1-4---1---------------------1-|
C|---------------------------------------------------------------------------|
G|----10--12--9--10--7--9--5--7--4--5-----4-----------------------3-5-2-3-0-2---|

A|-x-x-----x-x-----x-x-----x-x---|
E|-----5-------5-------5-------5-|
C|-x-x-2---x-x-2---x-x-2---x-x-2-|
G|-x-x-7---x-x-7---x-x-7---x-x-7-|

A|-x-x-----x-x-----x-x-----x-x---|
E|-----3-------3-------3-------3-|
C|-x-x-0---x-x-0---x-x-0---x-x-0-|
G|-x-x-5---x-x-5---x-x-5---x-x-5-|

A|---------------0-------2---------------------------------------------------|
E|---------3-5-6-----------------3-----3-4---3-4-5---3-4-5---------3-4-5-----|
C|-4-----4---------0-1-3---2-3-4---2-4-----4-------5---------2-3-4-----------|
G|---------------------------------------------------------5-----------------|

A|--------------------------------------------------------------------------------|
E|---------------------------------------------------------------------------|
C|---------------------------------------------------------------------------|
G|-5-6-7--7--10--12--13--16--17--7--7--7--7--7--7--7--7--7--7--7--7--7--7--7--7---|

A|--------------44---------------------------44-------44-----------44-------44-45|
E|---------------------------------------------------------------------------|
C|---------------------------------------------------------------------------|
G|-7--12--7--7-----7--7--10--7--7--12--7--7-----7--7-----12--7--7-----7--7-------|

A|-------44---------------44-----------44---------------------44----44-------------|
E|----------------------------------------------------------------------5----|
C|---------------------------------------------------------------------------|
G|-7--7-----12--7--7--12-----7--7--12-----7--7--10--7--7--12-----7-----12--7-------|

A|----------------------------------------------------------------------------------|
E|-------5--5--------5--------5-----------5--5--------5--------5-----5-------|
C|---------------------------------------------------------------------------|
G|-9--7--------7--5-----7--9-----10--9--10--------10--12-----10--12-----11-----7--9-|

A|-----------------------------------------------------------------------------------------|
E|-------------------------------6-----6-----6-----------------------6-------|
C|---------------------------------------------------------------------------|
G|-10--12--14--15--14--12--10--9--7--5-----14-----5-----14--12--10--9--10--12--14-----5--6-|
H H H P H P H P H P H P H H P H
A|----------------------------------------------------------------------------------|
E|-------------5-----5-2-------5---------------------------3---------22------|
C|-----------2-----2---------------------------------------------------------|
G|-7--9---7------9-------6--7----9--4-12--5--14--7--14-5-10-7-----2110-17-----9--12-|
H P H H P H H H H H H P P P H P P P P H P P H P P H
A|-----------------------------------------------------------5-------7-------7---|
E|-------------5------3-6------3--6--5--3----6--3------3------5----6--5------|
C|---------------------------2-------------2-------2-------------------------|
G|-15--7--10--14----7--10------7------------------------5------5---------------5-|
P P H P P H P P H P H P P H P P H P P H P P H P P H P
A|----7----------------------------------------------------------------------|
E|-5----------2-------2-------------2-------2-------2-------5--------5-------|
C|---------------------------------------------------------------------------|
G|------7--4----7--4----7--4--7--4----9--4----9--4----9--5-----9--5-----9--5-|
P H P P H P P P H P H P P H P P H P P H P P P P
A|-------------------------------------------------------------------------------|
E|-5--------3----------2-------------2-------2-------5--------5--------------|
C|---------------------------------------------------------------------------|
G|----11--5----10--7--4----9--4--7--4----7--4----9--5-----9--5----10-7--4-12--9--|
P H P P H P P H P P H P P H P P H P P H P P H P P
A|--------------------------------------------------------------------------------------------|
E|------------------------------------------------21-------22-------22-------|
C|---------------------------------------------------------------------------|
G|-5-14--10--7--14--10--7--15--11--7--16--12--9--17--13--10-----14--11-----15--12-----15--12--|
P
A|---------------------------------------------------------------------------|
E|-5----------------------5-3------------------------------------------------|
C|-2----------------------------5--------------------------------------------|
G|-7--------5----------4------4----------------------------------------------|
H P H P H H H H P P H P
A|---------------------------------------------------------------------------|
E|-3---------5----5----5---------3--4--3-----3-------------------------------|
C|-0--------------------------5-----------5-----5----------------------------|
G|-5-----------5----7----5--7------------------------------------------------|
s H H P P H H P P H H P P H H P
A|-----------2--------------------------------------------------------------------|
E|-5-------------------------------------------------------------------------|
C|-2-------------------------------------------------------------------------|
G|-7-----------4--6--7--11--7--5--7--11--7--5--7--11--7--5--7--11--7-14-----------|
s
A|-----------2-----------------------------------------------------------------------|
E|-3-------------------------------------------------------------------------|
C|-0-------------------------------------------------------------------------|
G|-5-----------4--7--10--11--12--15--10----10----10---10-----------------------------|

A|-7---7-------7---7---7-------7---------------------------------------------|
E|---1---1-3-1-------1---1-3-1---------------------1-3-1-3-5-3-3-------------|
C|---------------2---------------2-4---2---2-4-2-4---------------------------|
G|-----------------------------------5---5-----------------------------------|x
A|-7---7-------7---7---7-------7------7------------------7-------------------|
E|---1---1-3-1-------1---1-3-1-----5-----1--3--5---3--1----------------------|
C|---------------2---------------2-2--------2---4--2-------------------------|
G|---------------------------------7--4--5------------5--4-------------------|

A|-------------7-----------------7----------------7--------------------------|
E|-5----3--1---------5----3--1----------5---3--1-----5--3-----5--5-----------|
C|--4---2-------------4---2--------------4--2--------2--------2--2-----------|
G|---------5---4-------------5---4-------------5--4-----5-----7--7-----------|

 

Comentarios (0)
Ningún comentario :(
¿Necesitas ayuda, un consejo para compartir o simplemente quieres hablar sobre esta canción? Comience la discusión

Debes iniciar sesión para unirte a la discusión
o Registrarse

 

Acerca de esta canción

No hay información por esta canción.