Spongebob Squarepants Theme Song. (Intro) Tab por Spongebob Squarepants

tablatura Ukulele sin acordes.

ImprimirAñadir esta tab a su SongBook
Tablature / ChordsFont size: A- A A+

¿ No sabe cómo leer una tablatura o un acorde ?

curso de ukulele

A|------0-------------------0-----------3--2---0------|
E|------------0------0------------0-----0--0---0--3---|
C|---------------0----------------------0--0---0--0---|
G|--0-0----0------------0------0--------0--0---0--0---|



A|-------5-------------------5----------8--7---5------|
E|-------------5-------5-----------5----5--5---5--8---|
C|-----------------5--------------------5--5---5--5---|
G|--5-5-----5-------------5-----5-------5--5---5--5---|



A|--8---7---5----------5---7---8---|
E|--5---5---5--8---5---5---5---5---|
C|--5---5---5--5---5---5---5---5---|
G|--5---5---5--5---5---5---5---5---|



A|--7--8--7--5--7--8---8-----------|
E|---------------------5-----------|
C|---------------------5-----------|
G|---------------------5-----------|

 

Comentarios (3)
Debes iniciar sesión para unirte a la discusión
o Registrarse

 

tbuchok avatar
the ending is incorrect
14 Jan 2017
 avatar
flag for (ISO2)
Hope you like it!
11 Dec 2014
 avatar
flag for (ISO2)
Please Rate.
11 Dec 2014
Acerca de esta canción

No hay información por esta canción.