Keaton's Song Tab por Soko

tablatura Ukulele sin acordes.

Añadir esta tab a su SongBook
Tablature / ChordsFont size: A- A A+

¿ No sabe cómo leer una tablatura o un acorde ?

curso de ukulele

S S     S        S   S                                              
A|----------------------------------------------2---------------------2------|
E|--5-----5----------------8---------------0---------------------0-----------|
C|---------------2----2--------4---5-----------------5-----5-----------------|
G|-----5----5-4---4----5---9-----7-----7-----7----7-----7-----7----7-----7---|
S S S S S S
A|--------------------------------------------2-------------------2----------|
E|---3---3--------------3----3----5----5--0-5----5----5----5--0-5----5-------|
C|------------5----5---------------------------------------------------------|
G|-----4---4-----2---2-----4---4-----5-------------5----5--------------------|
S S S S S
A|----------------------------------------------2---------------------2------|
E|--5-----5----------------8---------------0---------------------0-----------|
C|---------------2----2--------4---5-----------------5-----5-----------------|
G|-----5----5-4---4----5---9-----7-----7-----7----7-----7-----7----7-----7---|
S S S S S S S S S S S S S S
A|-----------------------------------------------------------------------------|
E|------5----5-----3----3----------------------3---3-------------3---3-------|
C|----------------------------5----5-----4---4----------5---5----------------|
G|---10----10-----9----9-----7----7-----5---5-------4---4----2---2----4---4----|

A|--------------2---------------2--------------------------------------------|
E|----5---5-0-5---5---5---5-0-5---5------------------------------------------|
C|---------------------------------------------------------------------------|
G|------5-----------5---5----------------------------------------------------|

 

Comentarios (0)
Ningún comentario :(
¿Necesitas ayuda, un consejo para compartir o simplemente quieres hablar sobre esta canción? Comience la discusión

Debes iniciar sesión para unirte a la discusión
o Registrarse

 

Acerca de esta canción

No hay información por esta canción.