Saturn (Intro) Tab por Sleeping At Last

tablatura Ukulele sin acordes.

Añadir esta tab a su SongBook
Tablature / ChordsFont size: A- A A+

¿ No sabe cómo leer una tablatura o un acorde ?

curso de ukulele

H           H   P          H         H                  S         H       S     
A|--7-7-5-5---2-2-----------|--7-7-5-5---2-------5-5----|---7-7-5-5---2-------5-5-7-7|
E|--------------------------|--------------------------2|----------------------------|
C|--------------------------|---------------------------|----------------------------|
G|----------0-----0-2-2-0-0-|----------0---0-2-2-----0--|-----------0---0-2-2--------|
S H S
A|--7-7-5-5---2-2-------5-3-2------|-7-7-5-5---2-2-------------------|
E|---------------------------------|---------------------------------|
C|---------------------------------|-------------4-------------------|
G|----------0-----0-2-2-------0-2--|---------0-----------------------|

 

Comentarios (0)
Ningún comentario :(
¿Necesitas ayuda, un consejo para compartir o simplemente quieres hablar sobre esta canción? Comience la discusión

Debes iniciar sesión para unirte a la discusión
o Registrarse

 

Acerca de esta canción

No hay información por esta canción.