Cinema Tab por Skrillex

tablatura Ukulele sin acordes.

ImprimirAñadir esta tab a su SongBook
Tablature / ChordsFont size: A- A A+

¿ No sabe cómo leer una tablatura o un acorde ?

curso de ukulele

|--------------------------------------------------|
|---------------5--5-------------------------------|
|-----6-----6----------6----6--6--6---------6------|
|-6----------------------------------9--6------6---|

|--------------------------------------------------|
|----------5------------------5--5------5----------|
|-----6--------6-----6--6--6-----------------------|
|-6---------------------------------5--------------|

|-----------------------------------------------|
|---------------5--5----------------------------|
|-----6-----6----------6----6--6---------6------|
|-6-------------------------------9--6-------6--|

|----------------------------------------------------------|
|-----------------5--5------------5--5--5---------5--5--5--|
|-----6-----6--6--------6-----6---------------6------------|
|-6--------------------------------------------------------|

 

Comentarios (0)
Ningún comentario :(
¿Necesitas ayuda, un consejo para compartir o simplemente quieres hablar sobre esta canción? Comience la discusión

Debes iniciar sesión para unirte a la discusión
o Registrarse

 

Acerca de esta canción

No hay información por esta canción.