Replay Tab por SHINee

tablatura Ukulele sin acordes.

ImprimirAñadir esta tab a su SongBook
Tablature / ChordsFont size: A- A A+

¿ No sabe cómo leer una tablatura o un acorde ?

curso de ukulele

A|-----5----------5-----2--5----2-----5--------5----------5--------5------5--|
E|-----3-------------------3----------------3--3----3--------------3------3--|
C|--0-------0---------------------------------------------------6-------6----|
G|-----0-------0-----------0-------0-----------0-------0-----------2------2--|

A|-----5--------5-----2--5-----2---5--------5----5---5--------5----5---5-----|
E|-----3----3---3--------3-----3---3-----3--3----3---3--------3----3---3-----|
C|--0-------0----------------------------------------------6-------6---------|
G|-----0----0------------0-----0------------0----0------------2----2---------|

 

Comentarios (0)
Ningún comentario :(
¿Necesitas ayuda, un consejo para compartir o simplemente quieres hablar sobre esta canción? Comience la discusión

Debes iniciar sesión para unirte a la discusión
o Registrarse

 

Acerca de esta canción

No hay información por esta canción.