Rum Tab por Senses Fail

tablatura Ukulele sin acordes.

Añadir esta tab a su SongBook
Tablature / ChordsFont size: A- A A+

¿ No sabe cómo leer una tablatura o un acorde ?

curso de ukulele

A|--0-00-0-00--0-00-0-00---8-88-8-88---10--10-10--10--10-10----  7---------|
E|--0-00-0-00--0-00-0-00---8-88-8-88---10--10-10--10--10-10----------------|
C|--2-22-2-22--2-22-2-22---10-1010-10-1010---12--12-12--12--12-12---- X --------|
G|-------------------------------------------------------- --------|
A|--0-0~---8x8x--3x3x-2x2x---0-0~---8x8x--3x3x-2x2x------------------|
E|--0-0~---8x8x--3x3x-2x2x---0-0~---8x8x--3x3x-2x2x------------------|
C|--2-2----10x10x--5x5x-4x4x---2-2----10x10x--5x5x-4x4x------------------|
G|-------------------------------------------------------------------|
A|-0-0-0-0000-0-00--8-8-8-8888--3-33-22------------------------------|
E|-0-0-0-0000-0-00--8-8-8-8888--3-33-22------------------------------|
C|-2-2-2-2222-2-22--10-10-10-10101010--5-55-44------------------------------|
G|-------------------------------------------------------------------|
A|-0-0-0-0000-0-00--8-8-8-8888--3x3x-2x2x----------------------------|
E|-0-0-0-0000-0-00--8-8-8-8888--3x3x-2x2x----------------------------|
C|-2-2-2-2222-2-22--10-10-10-10101010--5x5x-4x4x----------------------------|
G|-------------------------------------------------------------------|
A|-- 0~ -------------------------|~ ---------------------------------|
E|-- 0~ -------------------------|~ ---------------------------------|
C|-- 2- -------------------------|- ---------------------------------|
G|-------------------------------|-----------------------------------|
A|--0-0-00-00--0-0-00--8-8-88-88--10--10--10-10--10-10---------------------|
E|--0-0-00-00--0-0-00--8-8-88-88--10--10--10-10--10-10---------------------|
C|--2-2-22-22--2-2-22--10-10-1010-1010--12--12--12-12--12-12---------------------|
G|-------------------------------------------------------------------|
A|--0-0-00-00--0-0-00--8-8-88-88--3-3-3-2/3-2------------------------|
E|--0-0-00-00--0-0-00--8-8-88-88--3-3-3-2/3-2------------------------|
C|--2-2-22-22--2-2-22--10-10-1010-1010--5-5-5-4-5-4------------------------|
G|-------------------------------------------------------------------|
A|--0-000-000--0-000-000--8-888-888-8-888-888---- ---------------|
E|--0-000-000--0-000-000--8-888-888-8-888-888---- ---------------|
C|--2-222-222--2-222-222--10-101010-101010-10-101010-101010----- ---------------|
G|-------------------------------------------------------------------|
A|--3-333-333--10--10-10-10--10-10-10--888-10-10-10----------------------------|
E|--3-333-333--10--10-10-10--10-10-10--888-10-10-10----------------------------|
C|--5-555-555--12--12-12-12--12-12-12--101010-12-12-12----------------------------|
G|----------------------------------------------- ----------------|
A|--0~---0~---0~---0x------------------------------------------------|
E|--0~---0~---0~---0x------------------------------------------------|
C|--2----2----2----2x------------------------------------------------|
G|-------------------------------------------------------------------|
S S
A|-----7777--------7------77-------7---------------------------------|
E|--11------3333-1---1-11--------1-----------------------------------|
C|--------------------------------------- -------------------------|
G|---------------------------555--------- X2 ------------------------|

A|-------------------------------------------------------------------|
E|--1-1---------------------1-1--------------------------------------|
C|-------------------------------------------------------------------|
G|-------------5-5---------------------5-5---------------------------|
S
A|--7-----5----------------------------------------------------------|
E|-----1---------------3-55------------------------------------------|
C|--------------------------- -------------------------------------|
G|-----------5--7---5-------- X4 ------------------------------------|
~ ~
A|--------------------------------|----------------------------------|
E|--5-----------------------------|----------------------------------|
C|--------------------------------|----------------------------------|
G|--------------------------------|----------------------------------|
S S
A|--------7----------7--------------7-7-7----------------------------|
E|--1-1-1---1--1-1-1---1--5-5-5-55-----------------------------------|
C|-------------------------------------------------------------------|
G|----------------------------------------55-------------------------|
S S S
A|--------7----------7--------------------7--------------------------|
E|--1-1-1---1--1-1-1---1--5-5-5-55--1-1-1---1------------------------|
C|-------------------------------------------------------------------|
G|-------------------------------------------------------------------|
S
A|--7-----5----------------------------------------------------------|
E|-----1---------------3-55------------------------------------------|
C|--------------------------- -------------------------------------|
G|-----------5--7---5-------- X4 ------------------------------------|
H
A|---------------------------------------------------------------------|
E|-----------5-5-----------------------------------------------------|
C|-------------------------------------- --------------------------|
G|--5-5-7-7-------10-10--9-9--7-7--5-7---- X4 -------------------------|
S
A|--77----55----77---7-----------------------------------------------|
E|-----11----11----1---1----------------------1----------------------|
C|------------------------- ---------------------------------------|
G|------------------------- X3 --------------------------------------|

A|-------------------------------------------------------------------|
E|--1-1-1-1-1-1-1-1-1-1-1-1-1-1-1-1-1-1-1-1-1-1-1-1-1-1-1------------|
C|-------------------------------------------------------------------|
G|-------------------------------------------------------------------|

A|-------------------------------------------------------------------|
E|--1-1-1-1-1-1-1-1-1-1-1-1-1-1-1-1-1-1-1----------------------------|
C|-------------------------------------------------------------------|
G|-------------------------------------------------------------------|
H
A|-------------------------------------------------------------------|
E|--33-5-5-----------------6-----------------------------------------|
C|----------5-5-------------------- 6 ------2-----------------------|
G|---------------55-7-7--5---5----- X-- ------x----------------------|

A|-------------------------------------------------------------------|
E|-------------------------------------------------------------------|
C|--2-2-2-2-2-2-2-2-2-2-2-2-2-2-2-2-2-2-2-2-2-2-2-2-2-2-2------------|
G|---x-x-x-x-x-x-x-x-x-x-x-x-x-x-x-x-x-x-x-x-x-x-x-x-x-x-x-----------|

A|-------------------------------------------------------------------|
E|-------------------------------------------------------------------|
C|--2-2-2-2-2-2-2-2-2-2-2-2-2-2-2-2-2-2-2----------------------------|
G|---x-x-x-x-x-x-x-x-x-x-x-x-x-x-x-x-x-x-x---------------------------|

A|-5---------------------------|------------------------------------|
E|------3--------------------|--------------3--------------------|
C|-5--4--x-55-4-55-55-4-0----|-55-55-4-55-4--x-55-4-55-55-4-0----|
G|-10--9-12-----9-------9-5----|-------9----9-12-----9-------9-5----|

 

Comentarios (0)
Ningún comentario :(
¿Necesitas ayuda, un consejo para compartir o simplemente quieres hablar sobre esta canción? Comience la discusión

Debes iniciar sesión para unirte a la discusión
o Registrarse

 

Acerca de esta canción

No hay información por esta canción.