Drunken Sailor Tab por Sea Shanty

2 Acordes utilizados en la canción: Dm, C

ImprimirAñadir esta tab a su SongBook
Tablature / ChordsFont size: A- A A+

¿ No sabe cómo leer una tablatura o un acorde ?

curso de ukulele

A|--0--0-0--0--0-0--0------0----|
E|-----------------------1------|
C|---------------------2--------|
G|------------------------------|

A|------------------------------|
E|----------------------0-------|
C|--------------------0---------|
G|--0--0-0--0--0-0--0-----0-----|

A|--0--0-0--0--0-0--0--2--3--5--|
E|------------------------------|
C|------------------------------|
G|------------------------------|

A|--3--0------------------------|
E|--------3--0------------------|
C|--------------2--2------------|
G|------------------------------|


Dm Dm
What shall we do with the drunken sailor?
C C
What shall we do with the drunken sailor?
Dm Dm
What shall we do with the drunken sailor?

chorus:
Dm Dm C C Dm Dm
Ear-ly in the morning
Dm Dm
Hooray, and up she rises
C C
Hooray, and up she rises
Dm Dm
Hooray, and up she rises
Dm Dm C C Dm Dm
Ear-ly in the morning


2. Put him in the long boat 'til he's sober
3. Pull out the plug and wet him all over
4. Put him in the bilge and make him drink it
5. Put him in a leaky boat and make him bale her
6. Tie him to the scuppers with the hose pipe on him
7. Shave his belly with a rusty razor
8. Tie him to the topmast while she's yardarm under
9. Heave him by the leg in a runnin' bowline
10. Keel haul him 'til he's sober
11. That's what we do with the drunken sailor!

 

Comentarios (4)
Debes iniciar sesión para unirte a la discusión
o Registrarse

 

dum_lemon avatar
DDUx for strumming pattern
13 Apr 2021
MissGenova avatar
D D DUDU
23 Mar 2021
zalkiel avatar
flag for FR(ISO2) (Entrelacs)
I used
D D U D
What shall we do with the drunken sailor
25 Sep 2020
sammeyb avatar
flag for CH(ISO2) (Bern)
does anyone know the strumming?
29 Jul 2018
Acerca de esta canción

No hay información por esta canción.